Cifra Club

Love Her Madly

The Doors

Tab de baixo: Principal
exibições 2.456
on every album thereafter. This song comes from the album "L.A. Woman" which featured one
of the greatest studio bassists of the time, Jerry Scheff. Jerry's bass lines on this album
to this taking place. You can check out Jerry Scheff at *.

Tabbed by: BASSteve

Tuning: EADG

Time signature: 4/4

r = rest (listen for duration)
h = hammer on
p = pull off
/ = slide (low to high)
\ = slide (high to low)
^ = bend (listen for pitch and release charateristics)
()= note inside parenthesis not plucked or hammered on
{}= note inside pointed parenthesis still ringing from previous measure

* My tabs are meant to be read in conjunction with listening to the song. In other words, 
there are no specific notations to account for note / rest duration. However, you will find that
I’ve made an attempt to strategically space the notes and rests within their respective measures
in order to represent the appropriate durations.



  (Guitar Intro)
G|------------------------|------------------------|------------------------|
D|r-----------------------|r--------------------5--|7-----------------------|
A|------------------------|------------------------|------------------------|
E|------------------------|------------------------|------------------------|


                                    [8x]                     [2x]
|------------------------|------------------------|------------------------|
|7-----5-----------5-----|------------------------|------4-----5-----7-----|
|------------5h8---------|------------5-----7---7-|5-----------------------|
|------------------------|5-----8-----------------|------------------------|


           [2x]
|------------------------|------------------------|------------------------|
|------------------------|------------------------|------------------------|
|------------5-----7---7-|------------------------|3--------3-----3-----3--|
|5-----8-----------------|5--0--3--5-----5--3--5--|---3--5-----------5-----|


                                                             [2x]
|------------------------|7-----------------------|------------------------|
|3--------3-----3--5--7--|---5--3-----------------|------------------------|
|---3--5-----------------|---------5--------3--5--|------------------------|
|------------------------|------------------------|5--0--3--5-----5--3--5--|


                                                             [3x]
|------------------------|------------------------|------------------------|
|------------------------|------------------------|------------------------|
|------------------------|7-----7---7-5--7--------|------------------------|
|5-----5---5-3--5--------|------------------------|5-----5---5-3--5--------|



|------------------------|------------------------|------------------------|
|------------------------|------------------------|------------------------|
|7-----7---7-5--7--------|------------------------|-----/12----------0--3--|
|------------------------|5-----5---5-3--5-----3--|5-----------3--5--------|



|------------------------|------------------------|------------------------|
|------------------------|------------------------|------------------------|
|5--5--3--r--0--0--3--5--|5--5--3--r--0--0--------|------------------------|
|------------------------|------------------0--2--|5--5--2--r--0--0--2--5--|


                 “Don’t you love her____as  she’s  walk - ing  out  the
|------------------------|------------------------|------------------------|
|------------------------|------------------------|---------5--------------|
|------------------------|---------------3--5--7--|---7--------7--5--3-----|
|5--5--2--r--0--0--2--5--|5-----5--5--5-----------|------------------------|


 doo___r?”
|------------------------|------------------------|------------------------|
|------------------------|---------------------12-|------12----------------|
|------------------------|-------------10h11^-----|------------------------|
|5-----5-----0--0--0-----|5--r--------------------|10----------------------|



|------------------------|------------------------|------------------------|
|{12}-------------12--12-|------12----------------|{12}----------------12--|
|------------11^---------|------------------------|------------11^11^------|
|------------------------|10----------------------|------------------------|



|------------------------|------------------------|------------------------|
|------12----------------|{12}----------------12--|------------12-10----10-|
|------------------------|---10h11^(11)^11^-------|------------------------|
|10----------------------|------------------------|10----------------10----|



|------------------------|------------------------|------------------------|
|12-12--10-10--9-9--7-7--|------2--r--0-0---2--r--|------2--r--0-0---2-----|
|------------------------|------------------------|------------------------|
|------------------------|3-----------------------|3-3-----------------3---|



|------------------------|------------------------|------------------------|
|------------------------|------------------------|------------------------|
|3-3-----------------3---|--3---------------------|------------------------|
|------5-5---3-3---5-----|------5-5---3-3---0-2---|5-----2--r--0-0---2-2---|


|------------------------|------------------------|------------------------|
|------------------------|------------------0-2---|3--r--------5--r--------|
|------------------0-2---|5-5---2-2---0-0---------|------5--r--------3--r--|
|5-5---2-2---0-0---------|------------------------|------------------------|


 mark.”
|------------------------|------------------------|------------------------|
|------------------------|------------------------|------------------------|
|------------------------|------------------------|/12/(15)----5-5---7-----|
|5-5------5--------5-5---|5-5------5-----5--5-5---|--------------------0---|


           [2x]                                              [3x]
|------------------------|------------------------|------------------------|
|------------------------|------------------------|------------------------|
|------------5-5---7-----|------------------------|------------5-5---7-----|
|5-5---8-8-----------0---|5-5---1-1---2-2---3-3---|5-5---8-8-----------0---|


                                       “Yeah______________________don’t you
|------------------------|------------------------|------------------------|
|-----/7-----7-7---7-----|------------------------|------------------------|
|--------------------5---|5/11^-------11^---11^---|3--------3-----3-----3--|
|5-5---------------------|------------------------|---3--5-----------5-----|


 lo______ve her______?”                     “Don't you love her as she's
|------------------------|7-----------------------|------------------------|
|3--------3-----3--5--7--|---5--3-----------------|------------------------|
|---3--5-----------------|---------5-----5--3--5--|------------------3--5--|
|------------------------|------------------------|5--0--2--5-----5--------|


 wal - king out___ the doo_________r?”
|------------------------|------------------------|------------------------|
|------------------------|------------------------|---------------------12-|
|7-----5--7-----7--5--3--|------------------------|-------------10h11^-----|
|---5--------------------|5--r--5--r--0--0--0-----|5--r--------------------|



|------------------------|------------------------|------------------------|
|------12----------------|{12}-------------12--12-|------12----------------|
|------------------------|------------11^---------|------------------------|
|10----------------------|------------------------|10----------------------|



|------------------------|------------------------|------------------------|
|{12}----12-----------12-|------12----------------|---------------------12-|
|---11^-----11^--11^-----|------------------------|------11^----10h11^-----|
|------------------------|10----------------------|------------------------|



|------------------------|------------------------|------------------------|
|------12\-----(5)p0-----|12-12--10-10--9-9--7-7--|------2--r--0-0---2--r--|
|------------------------|------------------------|------------------------|
|10----------------------|------------------------|3-----------------------|



|------------------------|------------------------|------------------------|
|------2--r--0-0---2-----|------------------------|------------------------|
|------------------------|3-3-----------------3---|--3---------------------|
|3-3-----------------3---|------5-5---3-3---5-----|------5-5---3-3---0-2---|


|------------------------|------------------------|------------------------|
|------------------------|------------------------|------------------0-2---|
|------------------------|------------------0-2---|5-5---2-2---0-0---------|
|5-----2--r--0-0---2-2---|5-5---2-2---0-0---------|------------------------|


 to    be    on    the    mark.”
|------------------------|------------------------|------------------------|
|3--r--------5--r--------|------------------------|r--------------------5--|
|------5--r--------3--r--|------------------------|------------------------|
|------------------------|5--r--------------------|------------------------|


                                                             [4x]
|------------------------|------------------------|------------------------|
|7-----------------------|7^----7^----------------|------------------------|
|------------------------|------------7-5---------|------------5-----7---7-|
|------------------------|------------------8\----|5-----8-----------------|


                                                             [2x]
|------------------------|------------------------|------------------------|
|------------5-----7-----|------------5-----7----7|------------------------|
|5-----8-----------------|5-----8-----------------|------------5-----7-----|
|------------------------|------------------------|5-----8-----------------|



|------------------------|------------------------|---------------------7--|
|------------------------|------------------3-----|3--------3--3--5--7-----|
|---------------3-----3--|3--------3--3--5-----3--|---3--5-----------------|
|5--0--3--5--3-----5-----|---3--5-----------------|------------------------|



|7-----------------------|------------------------|------------------------|
|---5--3-----------------|------------------------|------------------------|
|---------5--5--5--5--7--|------------------3--5--|------------------------|
|------------------------|5--0--3--5-----5--------|5--0--3--5-----5--3--0--|


           [4x]
|------------------------|------------------------|------------------------|
|------------------------|------------------------|------------------------|
|------3/(5)-------------|------------------3-5---|------------------------|
|5-5---------5-5---3(0)--|5-5---5-5---5-5---------|5-5---1-1---2-2---3-3---|


        [to fade]
|------------------------|
|------------------------|
|------3-5---3-3---------|
|5-5---------------5-3---|

                   (PLEASE RATE THIS TAB / LEAVE COMMENT)

0 comentários

    mostrar mais comentários

    Conseguiu tocar?

    0tocaram0ainda não

    Grave um vídeo tocando Love Her Madly e mande pra gente!

    00:00 / 00:00
    outros vídeos desta música
    repetirqualidadeautomática
    Outro vídeos desta música
      00:00 / 00:00
      automática
      OK