Cifra Club

Love Me Two Times

The Doors

Tab de baixo: Principal
exibições 29.911
Introdução

Parte 1 ( tocar 3x )

G|-----9-9------9-9-----9-9-----9-9-----------|
D|--------------------------------------------|
A|-7-7-----7-7------7-7-----7-7---------------|
E|--------------------------------------------|

Primeira parte

Love me two times, baby...

Parte 1 ( tocar 2x )

G|-----9-9------9-9-----9-9-----9-9-----------|
D|--------------------------------------------|
A|-7-7-----7-7------7-7-----7-7---------------|
E|--------------------------------------------|

Parte 2

G|--------------------------------------------|
D|-----7-7-----7-7-----7-7-----7-7------------|
A|-0-0-----0-0-----0-0-----0-0----------------|
E|--------------------------------------------|

Parte 3 

G|-----9-9------9-9-----9-9-----9-9-----------|
D|--------------------------------------------|
A|-7-7-----7-7------7-7-----7-7---------------|
E|--------------------------------------------|

Parte 4

G|--------------------------------------------|
D|--------------------------------------------|
A|-5-0-5-0-5-0-5-0-5-0-5-0--------------------|
E|--------------------------------------------|

G|--------------------------------------------|
D|--------------------------------------------|
A|-5-0-5-0-5-0-5-0-5-0-5-0-5------------------|
E|--------------------------------------------|

Parte 5

G|--------------------------------------------|
D|--------------------------------------------|
A|-3--3--3--3--3/-----------------------------|
E|--------------------------------------------|

Refrão 1

Love me two times,i'm goin' away... 

Parte 1

G|--------------------------------------------|
D|----9--12-----------------------------------|
A|-10-----------9--12----7--10----6--9--------|
E|-----------10--------8--------7-------------|

Introdução 2

Parte 1 

G|-----9-9------9-9---------------------------|
D|--------------------------------------------|
A|-7-7-----7-7--------------------------------|
E|--------------------------------------------|

Parte 2 ( tocar 2x )

G|-----9-9------9-9-----9-9-----9-9-----------|
D|--------------------------------------------|
A|-7-7-----7-7------7-7-----7-7---------------|
E|--------------------------------------------|

Segunda parte

Love me one time...

Parte 1 ( tocar 2x )

G|-----9-9------9-9-----9-9-----9-9-----------|
D|--------------------------------------------|
A|-7-7-----7-7------7-7-----7-7---------------|
E|--------------------------------------------|

Parte 2

G|--------------------------------------------|
D|-----7-7-----7-7-----7-7-----7-7------------|
A|-0-0-----0-0-----0-0-----0-0----------------|
E|--------------------------------------------|

Parte 3 

G|-----9-9------9-9-----9-9-----9-9-----------|
D|--------------------------------------------|
A|-7-7-----7-7------7-7-----7-7---------------|
E|--------------------------------------------|

Parte 4

G|--------------------------------------------|
D|--------------------------------------------|
A|-5-0-5-0-5-0-5-0--5-0-5-0-5-0-5-0-----------|
E|--------------------------------------------|

G|--------------------------------------------|
D|--------------------------------------------|
A|-5-0-5-0-5-0-5-0-5-0------------------------|
E|--------------------------------------------|

Parte 5

G|--------------------------------------------|
D|--------------------------------------------|
A|-3--3--3--3--3/-----------------------------|
E|--------------------------------------------|

Refrão 2

Love me two times,i'm goin' away... 

Parte 1

G|--------------------------------------------|
D|----9--12-----------------------------------|
A|-10-----------9--12----7--10----6-----------|
E|-----------10--------8--------7-------------|

Parte 2

G|--------------------------------------------|
D|--------------------------------------------|
A|-7--7--7--7--7--7--7--7--7--7--7------------|
E|--------------------------------------------|

Parte 3

G|--------------------------------------------|
D|----9--12-----------------------------------|
A|-10-----------9--12----7--10----6-----------|
E|-----------10--------8--------7-------------|

Solo de guitarra

Parte 1

G|--------------------------------------------|
D|--------------------------------------------|
A|--------------------------------------------|
E|-0-0--0-0--0-0--0-0-------------------------|

G|-----9-9------9-9---------------------------|
D|--------------------------------------------|
A|-7-7-----7-7--------------------------------|
E|--------------------------------------------|

Parte 2 ( Tocar 2x )

G|-----9-9------9-9-----9-9-----9-9-----------|
D|--------------------------------------------|
A|-7-7-----7-7------7-7-----7-7---------------|
E|--------------------------------------------|

Parte 3

G|--------------------------------------------|
D|-----7-7-----7-7-----7-7-----7-7------------|
A|-0-0-----0-0-----0-0-----0-0----------------|
E|--------------------------------------------|

Parte 4

G|-----9-9------9-9-----9-9-----9-9-----------|
D|--------------------------------------------|
A|-7-7-----7-7------7-7-----7-7---------------|
E|--------------------------------------------|

Parte 5

G|--------------------------------------------|
D|----9--12-----------------------------------|
A|-10-----------9--12----7--10----6-----------|
E|-----------10--------8--------7-------------|

G|--------------------------------------------|
D|--------------------------------------------|
A|-7--7--7--7--7--7--7--7--7--7--7------------|
E|--------------------------------------------|

G|--------------------------------------------|
D|----9--12-----------------------------------|
A|-10-----------9--12----7--10----6-----------|
E|-----------10--------8--------7-------------|

Introdução 3

Parte 1 

G|-----9-9------9-9---------------------------|
D|--------------------------------------------|
A|-7-7-----7-7--------------------------------|
E|--------------------------------------------|

Parte 2 ( tocar 2x )

G|-----9-9------9-9-----9-9-----9-9-----------|
D|--------------------------------------------|
A|-7-7-----7-7------7-7-----7-7---------------|
E|--------------------------------------------|

Terceira parte

Love me one time...

Parte 1 ( tocar 2x )

G|-----9-9------9-9-----9-9-----9-9-----------|
D|--------------------------------------------|
A|-7-7-----7-7------7-7-----7-7---------------|
E|--------------------------------------------|

Parte 2

G|--------------------------------------------|
D|-----7-7-----7-7-----7-7-----7-7------------|
A|-0-0-----0-0-----0-0-----0-0----------------|
E|--------------------------------------------|

Parte 3 

G|-----9-9------9-9-----9-9-----9-9-----------|
D|--------------------------------------------|
A|-7-7-----7-7------7-7-----7-7---------------|
E|--------------------------------------------|

Parte 4

G|--------------------------------------------|
D|--------------------------------------------|
A|-5-0-5-0-5-0-5-0--5-0-5-0-5-0-5-0-----------|
E|--------------------------------------------|

G|--------------------------------------------|
D|--------------------------------------------|
A|-5-0-5-0-5-0-5-0-5-0------------------------|
E|--------------------------------------------|

Parte 5

G|--------------------------------------------|
D|--------------------------------------------|
A|-3--3--3--3--3/-----------------------------|
E|--------------------------------------------|

Refrão 3

Love me two times,i'm goin' away... 

Parte 1

G|--------------------------------------------|
D|----9--12-----------------------------------|
A|-10-----------9--12----7--10----6-----------|
E|-----------10--------8--------7-------------|

Quarta parte

Love me two times, baby,love me twice today...

Parte 1

G|--------------------------------------------|
D|--------------------------------------------|
A|-7-7--7-7--7-7--7-7----7-7--7-7--7-7--7-7---|
E|--------------------------------------------|

Parte 2 ( Tocar 2x )

G|-----9-9------9-9-----9-9-----9-9-----------|
D|--------------------------------------------|
A|-7-7-----7-7------7-7-----7-7---------------|
E|--------------------------------------------|

Parte 3

G|--------------------------------------------|
D|-----7-7-----7-7-----7-7-----7-7------------|
A|-0-0-----0-0-----0-0-----0-0----------------|
E|--------------------------------------------|

Parte 4

G|-----9-9------9-9-----9-9-----9-9-----------|
D|--------------------------------------------|
A|-7-7-----7-7------7-7-----7-7---------------|
E|--------------------------------------------|

Parte 5

G|--------------------------------------------|
D|--------------------------------------------|
A|-5-0-5-0-5-0-5-0-5-0-5-0--------------------|
E|--------------------------------------------|

G|--------------------------------------------|
D|--------------------------------------------|
A|-5-0-5-0-5-0-5-0-5-0-5-0-5------------------|
E|--------------------------------------------|

Parte 5

G|--------------------------------------------|
D|--------------------------------------------|
A|-3--3--3--3--3/-----------------------------|
E|--------------------------------------------|

Refrão e parte final

Parte 1 ( Tocar 2x )

G|--------------------------------------------|
D|----9--12-----------------------------------|
A|-10-----------9--12----7--10----6-----------|
E|-----------10--------8--------7-------------|

G|--------------------------------------------|
D|--------------------------------------------|
A|-7--7--7--7--7--7--7--7--7--7--7------------|
E|--------------------------------------------|

Parte 2

G|--------------------------------------------|
D|----9--12-----------------------------------|
A|-10-----------9--12----7--10----6-----------|
E|-----------10--------8--------7-------------|

G|--------------------------------------------|
D|--------------------------------------------|
A|-7--7--7--7--7--7---------------------------|
E|--------------------------------------------|
Composição: The DoorsColaboração e revisão:
  • Reginaldo Costa

0 comentários

    mostrar mais comentários

    Conseguiu tocar?

    4tocaram0ainda não

    Grave um vídeo tocando Love Me Two Times e mande pra gente!

    00:00 / 00:00
    outros vídeos desta música
    repetirqualidadeautomática
    Outro vídeos desta música
      00:00 / 00:00
      automática
      Capítulos
      • Tocando a Música
      • Dicas Iniciais / Equipamentos
      • Confirguração do Pedal
      • Tocando a Introdução 1 e Primeira Parte
      • Ensinando a Introdução 1
      • Ensinando Primeira Parte
      • Tocando Refrão 1
      • Ensinando Refrão 1
      • Tocando Introdução 2, Segunda Parte e Refrão 2
      • Ensinando Introdução 2
      • Ensinando Segunda Parte
      • Ensinando Refrão 2
      • Tocando o Solo
      • Ensinando o Solo
      • Tocando resto da música
      • Ensinando Quarta Parte
      • Ensinando Refrão e Parte Final
      • Encerramento
      • Ficha Técnica / Erros de Gravação
      OK