Cifra Club

Love Street

The Doors

Tab de baixo: Principal
exibições 6.616
Verso Principal:

      Am         G          Gm         F
G|4|----------|----------|----------|----------|
D|4|----------|----------|----------|----------|
A|4|-------7--|---2---5--|-------5--|---0---3--|
E|4|-5-8-5----|-3---3----|-3-6-3----|-1---1----|

Solo de Teclado:

     Bm          A          Am         G
G|4|----------|----------|----------|----------|
D|4|-------4--|----------|----------|----------|
A|4|-2-5-2----|---4---7--|-------7--|---2---5--|
E|4|----------|-5---5----|-5-8-5----|-3---3----|

    Compasso de 4 tempos, 1ª nota 2 tempos, 2ª e 3ª são colcheias (meio tempo)
e a 4ª é de um tempo

Refrão:

    É só marcar bem os tempos em 1 1 1 1. O compasso continua de 4 tempos.

Instrumental:

    Marcação conforme o refrão.

Obs.: No lalalala, é usado as notas e o arranjo do solo de teclado.

0 comentários

    mostrar mais comentários

    Conseguiu tocar?

    0tocaram0ainda não

    Grave um vídeo tocando Love Street e mande pra gente!

    00:00 / 00:00
    outros vídeos desta música
    repetirqualidadeautomática
    Outro vídeos desta música
      00:00 / 00:00
      automática
      OK