Cifra Club

Roadhouse Blues

The Doors

Cifra: Principal
exibições 240.889
Tom: E
Introdução:
e|-----------------------------------------
B|-----------------------------------------
G|-----------------------------------------
D|-----------------------------------------
A|-----------------------------------5h6h7-
E|-0--0-0-0-0--0-5h6h7-0--0-0-0-0--0-------

Verso:
e|-----------------------------------------
B|-----------------------------------------
G|-----------------------------------------
D|-----------------------------------------
A|-----------------------------------5h6h7-
E|-0--0-0-0-0--0-5h6h7-0--0-0-0-0--0-------
                                     Keep your eyes on the road..

e|----------------------------------------------------------------
B|----------------------------------------------------------------
G|----------------------------------------------------------------
D|----------------------------------------------5-----------------
A|------------------------------------------------7p5-7---5-------
E|---------------------------0--0-0-0-0--0-5h6h7--------7---7-----
..your hands upon the wheel..                               Keep..

(Repete mais uma vez)

e|-----------------------------------------
B|-----------------------------------------
G|-----------------------------------------
D|-----------------------------------------
A|----5---5---5-----7--5-------------------
E|--7---7---7---7--------7-5-3--0-0--------
   Yeah, we’re go in’ to the roadhouse, gonna have a real..

e|------------------------------------------------
B|------------------------------------------------
G|-------------------------------------9x9--97x---
D|--------------------5----------------9x9--97x---
A|-----------------------7p5-7---5----------------
E|------------0-5h6h7h---------7---7--------------
..a good time


e|---------------------------------------
B|---------------------------------------
G|--9x9--9-7x-(repete algumas vezes)------
D|--9x9--9-7x----------------------------
A|---------------------------------------
E|---------------------------------------
  Yeah, back of the roadhouse they got..

e|---------------------------------------------------
B|---------------------------------------------------
G|---------------9x9--9-------------------9x9--97x---
D|---------------9x9--9-----5-------------9x9-97x----
A|-----------------------------7p5-7---5-------------
E|---------------------5h6h7---------7---7-----------
..some bungalows

e|-----------------------------------------
B|-----------------------------------------
G|--9x9--97x-(repete algumas vezes)--------
D|--9x9--97x-------------------------------
A|-----------------------------------------
E|-----------------------------------------
  Yeah, back of the roadhouse they got..

e|-----------------------------------------
B|-----------------------------------------
G|---------------9x9--9--------------------
D|---------------9x9--9-----5--------------
A|-----------------------------7p5-7---5---
E|---------------------5h6h7---------7---7-
..some bungalows

e|-----------------------------------------
B|-----------------------------------------
G|-----------------------------------------
D|-----------------------------------------
A|----5---5---5-----7--5-------------------
E|--7---7---7---7--------7-5-3--0-0--------
  And that’s for the people, who like to go down slow

e|---------------------------------------------
B|---------------------------------------------
G|---------------------------------------------
D|---------5---------------------4----------4--
A|-----------7-7---5-------4--7-------4--7-----
E|--0-5h6h7------7---7--5----------5-----------
                 Let it roll, baby roll

e|--------------------------------------------------------
B|--------------------------------------------------------
G|--------------------------------------------------------
D|---------------4----------4-----------------4---------4-
A|---------4--7-------4--7--------------4--7-------4-7----
E|------5----------5-----------------5----------5---------
 Let it roll, baby roll.. . ..Let it roll, baby roll

e|-----------2-2-2-2-2-2-2--x-x-x-2--------------
B|-----------4-4-4-4-4-4-4--1-1-1-4--------------
G|-----------2-2-2-2-2-2-2--3-3-3-2--------------
D|-----------4-4-4-4-4-4-4--2-2-2-4--------------
A|-----------2-2-2-2-2-2-2--3-3-3-2--------------
E|-----------2-2-2-2-2-2-2--x-x-x-2--------------
 Let it roll...                  . ..all night long!!!

Solo (Tempo: 1:35)
“Do it honey, do it!”
e|-----1212---1212---1212---1212-
B|-----1212---1212---1212---1212-
G|--14b----14b----14b----14b-----
D|---(repete várias vezes)-------
A|-------------------------------
E|-------------------------------

e|--12--12--12--12--12--12--------------------------------------
B|--12--12--12--12--12--12--------------------------------------
G|-14b-14b-14b-14b-14b-14b-(puxe o bend e toque as notas junto)-
D|--------------------------------------------------------------
A|--------------------------------------------------------------
E|--------------------------------------------------------------

e|------------15b17-|-12---12---12---1212---1212---1212---1212-
B|-17-15-12---------|---15b--15b--15b----15b----15b----15b-----
G|----------14------|-------------------(repete várias vezes)--
D|------------------|------------------------------------------
A|------------------|------------------------------------------
E|------------------|------------------------------------------

e|----1212-15-12-------------------------
B|-15b----------15---1212---1212---1212--
G|----------------14b----14b----14b------
D|----------------(repete várias vezes)--
A|---------------------------------------
E|---------------------------------------

e|-------------------------------|------------------------
B|-1212--------------------------|------------------------
G|-----14-12----12--14b-12----12-|-----9----9----9----9---
D|-----------14------ -----14----|-9h12-9h12-9h12-9h12----
A|-------------------------------|-(repete várias vezes)--
E|-------------------------------|------------------------

(Tempo:1:59)
e|-------------|---------|---------------|---------
B|-------------|---------|---------------|---------
G|-------------|-(gaita)-|----7----------|-(gaita)-
D|--7/9-9-7-5--|---------|-7/9--9-7-9-7--|---------
A|-----------7-|---------|-------------7-|---------
E|-------------|---------|---------------|---------

e|-------------|----------------------------
B|-10b-8h10-8--|----------------------------
G|-----------9-|----------------------------
D|-------------|---------------------------
A|-------------|-7-5-x---7-7---7-5-x---7-7---7-5-x--
E|-------------|---------------------------
                               you got roll, roll, roll..

e|--------------------------------
B|--------------------------------
G|--------------------------------
D|---(continua repetindo o riff)--
A|--------------------------------
E|--------------------------------
  You got to thrill my soul.. .all right

Roll, roll, roll.. .roll a
Thrill my soul

You gotta beep a gunk a chucha
Honk honk honk
You gotta each you puna
Each ya bop a luba
Each yall bump a kechonk
Ease sum konk
Ya, ride

(Gaita)
* Esses solos que vem a seguir(até “save your city.” )

e|----------------------------------------------
B|----------------------------------------------
G|----------------------------------------------
D|----------  7/9-7-5-----------------7br-7-5---
A|------------  -----7-----------------------7--
E|----------------------------------------------
  Ashen lady.. .          ashen lady

e|---------------------------------------------------------
B|---------------------------------------------------------
G|---------------------------------------------------------
D|----------------------7-7------------------------7-7-----
A|------------------5/7----7-------------------5/7----7----
E|---------------------------------------------------------
  Give up your vows.. .      give up your vots

e|-----------------------------------------------------
B|-----------------------------------------------------
G|-----------------------------------------------------
D|---------------7/9-7-5-------------------7/9-9-7-5---
A|----------------------7---------------------------7--
E|-----------------------------------------------------
  Save your city.. .       save your city

e|--------------------------------------
B|--------------------------------------
G|--------------------------------------
D|--------------------------------------
A|------------7-7---7-5-x---7-7---7-5-x-
E|--------------------------------------
  Right now!!

(Tempo: 3:11)
e|---------------------------------------------
B|---------------------------------------------
G|--9x99-97x---9x99-97x---9x99-97x---9x99-97x--
D|--9x99-97x---9x99-97x---9x99-97x---9x99-97x--
A|---------------------------------------------
E|---------------------------------------------
                     Well, I woke up this morning, I got..

e|---------------------------------------------------------
B|---------------------------------------------------------
G|-------------9x99--------------------9x99-97x---9x99-97x-
D|-------------9x99-----5--------------9x99-97x---9x99-97x-
A|------------------------7p5-7---5------------------------
E|-----------------5h6h7--------7---7----------------------
..myself a beer                   Well, I woke up this morning..

e|--------------------------------------------
B|--------------------------------------------
G|---------------------9x99-------------------
D|---------------------9x99-----5-------------
A|--------------------------------7p5-7---5---
E|-------------------------5h6h7--------7---7-
and I got myself a beer

e|-----------------------------------------
B|-----------------------------------------
G|-----------------------------------------
D|-----------------------------------------
A|----5---5---5-----7--5-------------------
E|--7---7---7---7--------7-5-3--0-0--------
 The future is uncertain, and the end is always near

e|---------------------------------------------
B|---------------------------------------------
G|---------------------------------------------
D|---------5---------------------4----------4--
A|-----------7-7---5-------4--7-------4--7-----
E|--0-5h6h7------7---7--5----------5-----------
                 Let it roll, baby roll

e|--------------------------------------------------------
B|--------------------------------------------------------
G|--------------------------------------------------------
D|---------------4----------4-----------------4---------4-
A|---------4--7-------4--7--------------4--7-------4-7----
E|------5----------5-----------------5----------5---------
 Let it roll, baby roll.. . ..Let it roll, baby roll

             B7            C7  C#7 D7  D#7 E7  E#7
e|-----------2-2-2-2-2-2-2--x---x---x---x---x---x--
B|-----------4-4-4-4-4-4-4--1---2---3---4---5---6--
G|-----------2-2-2-2-2-2-2--3---4---5---6---7---8--
D|-----------4-4-4-4-4-4-4--2---3---4---5---6---7--
A|-----------2-2-2-2-2-2-2--3---4---5---6---7---8--
E|-----------2-2-2-2-2-2-2--x---x---x---x---x---x--
 Let it roll...                               . ..all night

e|---------15/17-15h----------------------------------
B|------------------17p15-----------------------------
G|-----------------------16-14br-12--12---------------
D|---------------------------------14-----12/14-12~~~-
A|----------------------------------------------------
E|----------------------------------------------------
.. .long!!!
Acordes para:
    Composição: The DoorsColaboração e revisão:
    • Renahn Migdady

    0 comentários

      mostrar mais comentários

      Conseguiu tocar?

      0tocaram0ainda não

      Grave um vídeo tocando Roadhouse Blues e mande pra gente!

      00:00 / 00:00
      outros vídeos desta música
      repetirqualidadeautomática
      Outro vídeos desta música
        00:00 / 00:00
        automática
        OK