Cifra Club

Wishful Sinful

The Doors

Cifra: Versão 2 (violão e guitarra)
tom: A
(verso 1)
       D                                     D/A#
E|-----------------0------------|-----------------0--------|
B|--------------7-------7-------|--------------7----7------|
G|-----------7-------7----7-----|-----------7--------------|
D|--------7---------------------|-------7------------------|
A|-----5------------------------|--------------------------|
E|--5---------------------------|---6----------------------|
                      2x                                 1x

        Bm                                  A#                      A
E|-----------------9--7---------|-6-------------6--|-5---------5----|
B|--------------7--------7------|---6--------6-----|---5-----5---5--|
G|-----------7--------------7---|------6h7---------|-------6--------|
D|--------9---------------------|
A|-----9------------------------|
E|--7---------------------------|

(verso 2) D   Bb  

D               D/Bb          Bm             Bb   A
Wishful crystal waters covers everything in blue cooling water
D              Bb                       C
Wishful sinful our love is beautiful to see
             Bb            A         G#     G    F#     F
I know where I would like be   Right back where I   came
C            E      A           D       F          C    D       (D4 D  D4)
Wishful sinful wicked blue  waters covers you
C            E      A           D     F         C             D
Wishful Sinful wicked you  cant escape the blue
D                D/Bb                  Bm                   Bb
Magic is rising  sun is shinning  deep beneath the sea
 A                   D                  Am
But not enough for   you and me and sunshine
 D                 Am
Love to hear the  wind cry

(orquestra)  A  Am  

                                                                           E9-         E
E|----------------------|------------------------|----0------0-----------|-----------|------|
B|--------5-7b8r7-------|------------5-6b7r6-----|-------4b--------------|--------3--|------|
G|-----4------------5---|---------4------------4-|------------------2----|-----1-----|------|
D|----------------7-----|--------------------6---|----------------4------|---3-------|------|
A|--7-------------------|---6/5------------------|-3---------------------|-2---------|------|
E|----------------------|------------------------|-----------------------|-----------|-0----|

 D                                   A#
Wishful sinful  B|--------- our love..
                G|-7-6-5-4
                D|---------


Wishful sinful
Our love is beautiful to see
I know where I would like to be
Right back where I came

Wishful, sinful, wicked blue
Water covers you
Wishful, sinful, wicked you
Can't escape the blue
Am       D
Love to hear the wind cry
Love to hear you cry, yeah, yeah
00:00 / 00:00
Outros vídeos desta música
Repetir
Outros vídeos desta música
Composição de Robby Krieger
Colaboração e revisão:
  • Luis Braschi
  • Luis Braschi
1.313 exibições
    • ½ Tom
    • A
    • Bb
    • B
    • C
    • Db
    • D
    • Eb
    • E
    • F
    • F#
    • G
    • Ab
  • Adicionar à lista

    0 comentários

    Ver todos os comentários

    Entre para oCifra Club PRO

    Tenha acesso a benefícios exclusivos no App e no Site

    • Chega de anúncios

    • Prioridade de compra em lançamentos

    • Mais recursos no app do Afinador

    • Atendimento Prioritário

    • Descontos nos produtos Cifra Club

    • Ajude a produzir mais conteúdo

    00:00 / 00:00

    Cifra Club Pro

    Aproveite o Cifra Club com benefícios exclusivos e sem anúncios
    Cifra Club Pro
    Aproveite o Cifra Club com benefícios exclusivos e sem anúncios
    OK