Rainy Days In The Big City

The Faulty

tom: D
e||------2-----2------5----5--------------------------------------------------------------||
B||----3-----3---3------------------------------------------------------------------------||
G||--4-----4-------4-----4---4------------------------------------------------------------||  x 4
D||---------------------------------------------------------------------------------------||
A||---------------------------------------------------------------------------------------||
E||---------------------------------------------------------------------------------------||

e||---------------------------------------------------------------------------------------||
B||---------------------------------------------------------------------------------------||
G||---4--4--4--2--2--2--4-----------------------------------------------------------------||  x 4
D||---4--4--4--2--2--2--4-----4--4--4--4--2--2--------------------------------------------||
A||---2--2--2--0--0--0--2-----4--4--4--4--2--2--------------------------------------------||
E||---------------------------2--2--2--2--0--0--------------------------------------------||

     PM  PM PM  PM  PM  PM
e||---------------------------5-5-5-5-2-2-2-----------------------------------------------||
B||---------------------------------------------------------------------------------------||
G||---4--4--4--7--7--7--6-----------------------------------------------------------------|| X 4 
D||---4--4--4--7--7--7--6-----------------------------------------------------------------||
A||---2--2--2--5--5--5--4-----------------------------------------------------------------||
E||---------------------------------------------------------------------------------------||

e||---------------------------------------------------------------------------------------||
B||---------------------------------------------------------------------------------------||
G||---4--4--4--2--2--2--4-----------------------------------------------------------------||  x 4
D||---4--4--4--2--2--2--4-----4--4--4--4--2--2--------------------------------------------||
A||---2--2--2--0--0--0--2-----4--4--4--4--2--2--------------------------------------------||
E||---------------------------2--2--2--2--0--0--------------------------------------------||
                                           
e||---------------------------------------------------------------------------------------||
B||---------------------------------------------------------------------------------------||
G||---4--------------------9--------------------77777777777777777777----------------------||  x 1
D||---4--------------------9--------------------77777777777777777777--77777777777777777777||
A||---2--------------------7--------------------55555555555555555555--77777777777777777777||
E||-------------------------------------------------------------------55555555555555555555||

e||---------------------------------------------------------------------------------------||
B||---------------------------------------------------------------------------------------||
G||--44444444444444444444--22222222222222222222--7--7--9--9---------7--7--9--9------------||  x 1
D||--44444444444444444444--22222222222222222222--7--7--9--9--9--9---7--7--9--9--9--9-----7||
A||--22222222222222222222--00000000000000000000--5--5--7--7--9--9---5--5--7--7--9--9-----9||
E||----------------------------------------------------------7--7---------------7--7-----9||

ESPERA UM POUCO: (sÓ O BAIXO)
AÍ CONTINUA...

e||------2-----2------5----5--------------------------------------------------------------||
B||----3-----3---3------------------------------------------------------------------------||
G||--4-----4-------4-----4---4------------------------------------------------------------||  x 4
D||---------------------------------------------------------------------------------------||
A||---------------------------------------------------------------------------------------||
E||---------------------------------------------------------------------------------------||

e||---------------------------------------------------------------------------------------||
B||---------------------------------------------------------------------------------------||
G||---4--4--4--2--2--2--4-----------------------------------------------------------------||  x 4
D||---4--4--4--2--2--2--4-----4--4--4--4--2--2--------------------------------------------||
A||---2--2--2--0--0--0--2-----4--4--4--4--2--2--------------------------------------------||
E||---------------------------2--2--2--2--0--0--------------------------------------------||

     PM  PM PM  PM  PM  PM
e||---------------------------5-5-5-5-2-2-2-----------------------------------------------||
B||---------------------------------------------------------------------------------------||
G||---4--4--4--7--7--7--6-----------------------------------------------------------------|| X 4 
D||---4--4--4--7--7--7--6-----------------------------------------------------------------||
A||---2--2--2--5--5--5--4-----------------------------------------------------------------||
E||---------------------------------------------------------------------------------------||

e||---------------------------------------------------------------------------------------||
B||---------------------------------------------------------------------------------------||
G||---4--4--4--2--2--2--4-----------------------------------------------------------------||  x 4
D||---4--4--4--2--2--2--4-----4--4--4--4--2--2--------------------------------------------||
A||---2--2--2--0--0--0--2-----4--4--4--4--2--2--------------------------------------------||
E||---------------------------2--2--2--2--0--0--------------------------------------------||
                                           
e||---------------------------------------------------------------------------------------||
B||---------------------------------------------------------------------------------------||
G||---4--------------------9--------------------77777777777777777777----------------------||  x 1
D||---4--------------------9--------------------77777777777777777777--77777777777777777777||
A||---2--------------------7--------------------55555555555555555555--77777777777777777777||
E||-------------------------------------------------------------------55555555555555555555||

e||---------------------------------------------------------------------------------------||
B||---------------------------------------------------------------------------------------||
G||--44444444444444444444--22222222222222222222--7--7--9--9---------7--7--9--9------------||  x 1
D||--44444444444444444444--22222222222222222222--7--7--9--9--9--9---7--7--9--9--9--9-----9||
A||--22222222222222222222--00000000000000000000--5--5--7--7--9--9---5--5--7--7--9--9-----9||
E||----------------------------------------------------------7--7---------------7--7-----7||

AGORA, VÊM UMA PARTE ACUSTICA:

Bm, Bm, A, A, Bm, Bm, A, A, 
Bm, Bm, A, A, Bm, Bm, A, A.

e||---------------------------------------------------------------------------------------||
B||---------------------------------------------------------------------------------------||
G||---4--4--4--2--2--2--4-----------------------------------------------------------------||  x 4
D||---4--4--4--2--2--2--4-----4--4--4--4--2--2--------------------------------------------||
A||---2--2--2--0--0--0--2-----4--4--4--4--2--2--------------------------------------------||
E||---------------------------2--2--2--2--0--0--------------------------------------------||

e||---------------------------------------------------------------------------------------||
B||---------------------------------------------------------------------------------------||
G||---4--4--4--2--2--2--4-----------------------------------------------------------------||  x 4
D||---4--4--4--2--2--2--4-----4--4--4--4--2--2--------------------------------------------||
A||---2--2--2--0--0--0--2-----4--4--4--4--2--2--------------------------------------------||
E||---------------------------2--2--2--2--0--0--------------------------------------------||

AGORA, VÊM OUTRA PARTE ACUSTICA:
Bm, Bm.

fim
Página 1 / 1

Letras e título
Acordes e artista

resetar configurações
OK