Cifra Club

Whistle For The Choir

The Fratellis

Tab de baixo: Principal
G|
D|
A|
E|

No Bass In Intro
No Bass In  First Verse

[[Chorus]]
  So    If     Your....
G|---------------------|
D|---------------------|
A|-------0-------2-----|
E|-3-------------------|

 Lonely..........
G|----------------------|
D|----------------------|
A|-3-3--7-7--5-5--------|
E|--3-3--7-7--5-5-------|

 It's Just Like You To Come And Go....
G|----------------------|
D|----------------------|
A|----------------------|
E|-3---1---0------------|

Know Me....
G|----------------------|
D|----------------------|
A|-3-3--7-7--5-5--------|
E|--3-3--7-7--5-5-------|

A Girl Like You....
G|----------------------|
D|----------------------|
A|----------------------|
E|-3---1---0------------|

[[Inbetween Chorus and Verse]]
G|----------------------|
D|----------------------|
A|-3-3--7-7--5-5--------|
E|--3-3--7-7--5-5-------|

G|----------------------|
D|----------------------|
A|----------------------|
E|-3---1---0------------|

[[Verse]]

G|----------------------|
D|----------------------|
A|-3-3--7-7--5-5--------|
E|--3-3--7-7--5-5-------|

G|----------------------|
D|----------------------|
A|----------------------|
E|-3---1---0------------|

Repeat.

[[Chorus]]

[[Bridge]]
G|----------------------|
D|----------------------|
A|-1-1---5-5--3-3-------|
E|--1-1---5-5--3-3------|
I Dont Know The Run For This Bit...

Repeat.

[[Chorus x2]]

Hope You Can Understand It, This Is My First Tab...
Need Any More Help, E-mail Me:
*

Simmy
00:00 / 00:00
Outros vídeos desta música
Repetir
Outros vídeos desta música
Composição de Barry Wallace / Gordon McRory / John Lawler
1.352 exibições

0 comentários

Ver todos os comentários

Entre para oCifra Club PRO

Tenha acesso a benefícios exclusivos no App e no Site

  • Chega de anúncios

  • Prioridade de compra em lançamentos

  • Mais recursos no app do Afinador

  • Atendimento Prioritário

  • Descontos nos produtos Cifra Club

  • Ajude a produzir mais conteúdo

00:00 / 00:00

Cifra Club Pro

Aproveite o Cifra Club com benefícios exclusivos e sem anúncios
Cifra Club Pro
Aproveite o Cifra Club com benefícios exclusivos e sem anúncios
OK