Cifra Club

Aprenda

How To Save a Life

The Fray

Tab de baixo: Principal
Verso
G-----------------------
D-----------------------
A---------------------5-
E-3-33-3-2-22-2-0-00-0--

Refrão
G-----------------------
D-----------------------
A-3--5--7---------------
E----------3-2----------
Composição de Isaac Slade / Joe King
Colaboração e revisão:
  • Evandro Santos
6.276 exibições

0 comentários

Mostrar mais comentários

Conseguiu tocar?

0 Tocaram 0 Ainda não

Grave um vídeo tocando How To Save a Life e mande pra gente!

00:00 / 00:00
outros vídeos desta música
repetir qualidade Automático
Outros vídeos desta música
00:00 / 00:00
Automático

Cifra Club Pro

Aproveite o Cifra Club com benefícios exclusivos e sem anúncios
7 dias grátis
Cifra Club Pro
Aproveite o Cifra Club com benefícios exclusivos e sem anúncios
7 dias grátis
OK