Cifra Club

Aprenda

Little House

The Fray

Tab de baixo: Principal
Sem baixo durante o primeiro refrão.

Refrão:

"Somethin' scratching it's way out...
g|------------------|---------------------|
d|------------------|---------------------|
a|------------------|---------------------|
e|--0-0-0-0-5-5-5-5-|-3-3-3-3-10-10-10-10-|


 Somethin' you wanna forget about..."
-----------------|-----------------|
-----------------|-----------------|
-----------------|-----------------|
-0-0-0-0-5-5-5-5-|-3-3-3-3-7-7-7-7-|


Riff:

g|----------------------------|
d|-----10-10p9----------------| Tocar o Riff x2
a|--------------9---9h10------|
e|--0---------------------7---|

A primeira parte do Verso 2

g|------------------------------|
d|------------------------------|
a|------------------------------|
e|--0-------0-------0-------0---|

Tocar o Riff x2

A segunda parte do Verso 2

g|------------------------------|
d|------------------------------|
a|------------------------------|
e|--0-------0-------0-------0---|


"What its all about...what its all about"
g|-------------------------------|
d|-------------------------------|
a|--3---3---3-3------------------|
e|---------3--------5---5--0-5-5-|


Refrão x2


Interlúdio no piano:

g|------------------------------------
d|------------------------------------
a|------------------------------------
e|--0--0--0-0-/7-7----0--0--0-0-/7-7--

---------------------------------------------|
---------------------------------------------|
---------------------------------------------|
--5-5-5-5--3-3-3-3--/11-11-11-11-11-11-11-11-|


g|------------------------------------
d|------------------------------------
a|------------------------------------
e|--0--0--0-0-/7-7----0--3--5--5/7-7--

---------------------------------------------|
---------------------------------------------|
---------------------------------------------|
--5-5-5-5--3-3-3-3--/10-10-10-10-11-11-11-11-|


g|----------------------------------------------------------------------|
d|----------------------------------------------------------------------|
a|--77777777777777777777777755555555--77777777777777777777777755555555--|
e|----------------------------------------------------------------------|


Refrão:

g|------------------|---------------------|
d|------------------|---------------------|
a|------------------|---------------------|
e|--0-0-0-0-5-5-5-5-|-3-3-3-3-10-10-10-10-|

-----------------|-----------------|
-----------------|-----------------|
-----------------|-----------------|
-0-0-0-0-5-5-5-5-|-3-3-3-3-7-7-7-7-|


g|------------------|---------------------|
d|------------------|---------------------|
a|------------------|---------------------|
e|--0-0-0-0-5-5-5-5-|-3-3-3-3-10-10-10-10-|

-----------------|-----------------|-----------------|
-----------------|-----------------|-----------------|
-----------------|-----------------|-----------------|
-0-0-0-0-5-5-5-5-|-3-3-3-3-3-3-3-3-|-7-7-7-7-7-7-7-7-|


Riff x2
Composição de Isaac Slade / Joe King
Colaboração e revisão:
  • Jean Sapia
118 exibições

0 comentários

Mostrar mais comentários

Conseguiu tocar?

0 Tocaram 0 Ainda não

Grave um vídeo tocando Little House e mande pra gente!

00:00 / 00:00
outros vídeos desta música
repetir qualidade Automático
Outros vídeos desta música
00:00 / 00:00
Automático

Cifra Club Pro

Aproveite o Cifra Club com benefícios exclusivos e sem anúncios
7 dias grátis
Cifra Club Pro
Aproveite o Cifra Club com benefícios exclusivos e sem anúncios
7 dias grátis
OK