Cifra Club

Aprenda

Over my Head (Cable Car)

The Fray

Tab de baixo: Principal
     VERSO 1 :
                G|--------|--------|--------|--------|--------|--------|--------|
                D|--------|3--3----| REPETIR|--------|3-------|--------|11111111|
                A|4--44--6|-33-6--3|  [2x]  |4--44--6|-3333333|44443333|--------|
                E|-44-44--|-----66-|<<<=====|-44--44-|--------|--------|--------|
     REFRÃO :
                G|------------|------------|------------|------------|
                D|------------|3-3-3-------|------------|------------|    Repetir 
                A|4-4-4-------|------6-6-6-|4-4-4-------|4-4-4-6-6-6-|     [2x]
                E|------4-4-4-|------------|------4-4-4-|------------|
  PÓS REFRÃO:    
                G|--------|--------|
                D|--------|3--3----|   Repetir
                A|4--44--6|-33-6--3|    [2x]
                E|-44--44-|-----66-|
   VERSO 2 :
                G|--------|--------|--------|--------|--------|--0-10--|
                D|--------|3-------|----REPERTIR-----|--------|11-1--31|
                A|4-------|----3---|-------[3x]------|44443333|--------|
                E|--------|--------|---[<<<======]---|--------|--------|

                G|--------|--------|--------|--------|--------|--------|--------|
                D|--------|3--3----| REPETIR|--------|3-------|--------|11111111|
                A|4--44--6|-33-6--3|  [2x]  |4--44--6|-3333333|44443333|--------| 
                E|-44-44--|-----66-|<<<=====|-44--44-|--------|--------|--------|
           
   REFRÃO :
                G|------------|------------|------------|------------|
                D|------------|3-3-3-------|------------|------------|    Repetir 
                A|4-4-4-------|------6-6-6-|4-4-4-------|4-4-4-6-6-6-|     [2x]
                E|------4-4-4-|------------|------4-4-4-|------------|   
   PONTE 1:
                G|--------|--------|--------|--------|--------|--------|
                D|--------|--------|REPETIR |--------|--------|--------|
                A|4-------|--------|  [2x]  |4-------|--------|1-------|
                E|--------|1---4---|<<<=====|--------|1---4---|--------|
   VERSO 3:
                G|--------|--------|--------|--------|--------|33333333|
                D|--------|3--3----|----[REPETIR]----|--------|--------|
                A|4--44--4|-33-33--|-------[2x]------|11111111|--------|
                E|-44--44-|------44|--[<<<========]--|--------|--------|
   PONTE :

                G|--------|--------|--------|--------|--------|--------|
                D|--------|--------|--------|--------|--------|--------|
                A|--------|--------|--------|--------|--------|--------|
                E|4-------|--------|--------|--------|--------|--------|

                G|--------|--------|REPETIR-|--------|
                D|--------|--------|--[2x]--|--------|
                A|4--44--4|13311333|-EM-TRÊS|4--44--4|
                E|-44--44-|--------|-TEMPOS-|-44--44-|

                G|--------|--------|
                D|--------|--------|  REPERTIR
                A|133143--|13311333|    [4x]
                E|------64|--------|
   REFRÃO:

                G|------------|------------|------------|------------|
                D|------------|3-3-3-------|------------|------------|    Repetir 
                A|4-4-4-------|------6-6-6-|4-4-4-------|4-4-4-6-6-6-|     [2x]
                E|------4-4-4-|------------|------4-4-4-|------------|   
  PÓS REFRÃO:    
                G|--------|--------|               G|-------|
                D|--------|3--3----|   Repetir     D|-------|    
                A|4--44--6|-33-6--3|    [4x]       A|4------|
                E|-44--44-|-----66-|               E|-------|
Composição de Isaac Slade / Joe King
Colaboração e revisão:
  • rafael resende
1.008 exibições

0 comentários

Mostrar mais comentários

Conseguiu tocar?

0 Tocaram 0 Ainda não

Grave um vídeo tocando Over my Head (Cable Car) e mande pra gente!

00:00 / 00:00
outros vídeos desta música
repetir qualidade Automático
Outros vídeos desta música
00:00 / 00:00
Automático

Cifra Club Pro

Aproveite o Cifra Club com benefícios exclusivos e sem anúncios
7 dias grátis
Cifra Club Pro
Aproveite o Cifra Club com benefícios exclusivos e sem anúncios
7 dias grátis
OK