Cifra Club

Aprenda

Closed For The Season

The Hives

Cifra: Principal (violão e guitarra)
Tom: G
Album: Barely Legal
Transcribed by: tituzz2
Mail: *


Note:  x~  -> long note


W/ distortion:
Intro:

d:-------------------------------------------------------|
a:-------------------------------------------------------|
f:-------------------------------------------------------|
c:-222~~-------------------------------------------------|
g:-000-0-0-0-0-0-0-0-0-0-0-0-0-0-0-0-0-0-0-0-0-0-0-0-0-0-|
c:-------------------------------------------------------|

W/ distortion:
Chorus: X2

d:-----------------------------------------------|
a:-----------------------------------------------|
f:-2-2-2-2-2-2-2-2-2-2-2-2-2-5-5-5-5-5-----------|
c:-2-2-2-2-2-2-2-2-2-2-2-2-2-5-5-5-5-5-5-5-5-5-5-|
g:-0-0-0-0-0-0-0-0-0-0-0-0-0-3-3-3-3-3-5-5-5-5-5-|
c:-------------------------------------3-3-3-3-3-|

d:----------------------------------------------------|
a:----------------------------------------------------|
f:-2-2-2-2-2-2-2-2-2-2-2-2-2-5-5-5-5-5-10-10-10-10-10-|
c:-2-2-2-2-2-2-2-2-2-2-2-2-2-5-5-5-5-5-10-10-10-10-10-|
g:-0-0-0-0-0-0-0-0-0-0-0-0-0-3-3-3-3-3- 8- 8- 8- 8- 8-|
c:----------------------------------------------------|

W/ distortion:
Before the verse:

d:-----------------------------------------------------|
a:-----------------------------------------------------|
f:-----------------------------------------------------|
c:--2~~------------------------------------------------|
g:--0-0-0-0-0-0-0-0-0-0-0-0-0-0-0-0-0-0-0-0-0-0-0-0-0--|
c:-----------------------------------------------------|

W/ distortion:
Verse1:

d:-------------------------------------------------|
a:-------------------------------------------------|
f:-2-2-2-2-2-2-5-5-5-5-5-5-------------------------|    this part X4
c:-2-2-2-2-2-2-5-5-5-5-5-5-5-5-5-5-5-5-3-3-3-3-3-3-|
g:-0-0-0-0-0-0-3-3-3-3-3-3-5-5-5-5-5-5-3-3-3-3-3-3-|
c:-------------------------3-3-3-3-3-3-1-1-1-1-1-1-|

d:-------------------------------------------------------------------------|
a:-------------------------------------------------------------------------|
f:-------------------------------------------------------------------------|
c:-5-5-5-5-5-5-5-5-5-5-5-5-5-5-5-222~~-------------------------------------|
g:-5-5-5-5-5-5-5-5-5-5-5-5-5-5-5-000-0-0-0-0-0-0-0-0-0-0-0-0-0-0-0-0-0-0-0-|
c:-3-3-3-3-3-3-3-3-3-3-3-3-3-3-3-------------------------------------------|

W/ distortion:
Chorus: X2

d:-----------------------------------------------|
a:-----------------------------------------------|
f:-2-2-2-2-2-2-2-2-2-2-2-2-2-5-5-5-5-5-----------|
c:-2-2-2-2-2-2-2-2-2-2-2-2-2-5-5-5-5-5-5-5-5-5-5-|
g:-0-0-0-0-0-0-0-0-0-0-0-0-0-3-3-3-3-3-5-5-5-5-5-|
c:-------------------------------------3-3-3-3-3-|

d:----------------------------------------------------|
a:----------------------------------------------------|
f:-2-2-2-2-2-2-2-2-2-2-2-2-2-5-5-5-5-5-10-10-10-10-10-|
c:-2-2-2-2-2-2-2-2-2-2-2-2-2-5-5-5-5-5-10-10-10-10-10-|
g:-0-0-0-0-0-0-0-0-0-0-0-0-0-3-3-3-3-3- 8- 8- 8- 8- 8-|
c:----------------------------------------------------|

W/ distortion:
Before the verse:

d:-----------------------------------------------------|
a:-----------------------------------------------------|
f:-----------------------------------------------------|
c:-2~~-------------------------------------------------|
g:-0-0-0-0-0-0-0-0-0-0-0-0-0-0-0-0-0-0-0-0-0-0-0-0-0-0-|
c:-----------------------------------------------------|

W/ distortion:
Verse2:

d:-------------------------------------------------|
a:-------------------------------------------------|
f:-2-2-2-2-2-2-5-5-5-5-5-5-------------------------|    this part X4
c:-2-2-2-2-2-2-5-5-5-5-5-5-5-5-5-5-5-5-3-3-3-3-3-3-|
g:-0-0-0-0-0-0-3-3-3-3-3-3-5-5-5-5-5-5-3-3-3-3-3-3-|
c:-------------------------3-3-3-3-3-3-1-1-1-1-1-1-|

d:-------------------------------------------------------------------------|
a:-------------------------------------------------------------------------|
f:-------------------------------------------------------------------------|
c:-5-5-5-5-5-5-5-5-5-5-5-5-5-5-5-222~~-------------------------------------|
g:-5-5-5-5-5-5-5-5-5-5-5-5-5-5-5-000-0-0-0-0-0-0-0-0-0-0-0-0-0-0-0-0-0-0-0-|
c:-3-3-3-3-3-3-3-3-3-3-3-3-3-3-3-------------------------------------------|

d:---------|
a:---------|
f:-2-------|
c:-2-3~-5~-|
g:-0-3~-5~-|
c:---1~-3~-|

W/ distortion:
Chorus: X2

d:-----------------------------------------------|
a:-----------------------------------------------|
f:-2-2-2-2-2-2-2-2-2-2-2-2-2-5-5-5-5-5-----------|
c:-2-2-2-2-2-2-2-2-2-2-2-2-2-5-5-5-5-5-5-5-5-5-5-|
g:-0-0-0-0-0-0-0-0-0-0-0-0-0-3-3-3-3-3-5-5-5-5-5-|
c:-------------------------------------3-3-3-3-3-|

d:----------------------------------------------------|
a:----------------------------------------------------|
f:-2-2-2-2-2-2-2-2-2-2-2-2-2-5-5-5-5-5-10-10-10-10-10-|
c:-2-2-2-2-2-2-2-2-2-2-2-2-2-5-5-5-5-5-10-10-10-10-10-|
g:-0-0-0-0-0-0-0-0-0-0-0-0-0-3-3-3-3-3- 8- 8- 8- 8- 8-|
c:----------------------------------------------------|

W/ distortion:
Before the Solo:

d:------|
a:------|
f:-2~~--
c:-2~~--
g:-0~~--
c:------

W/ distortion:
Solo:

d:-------------------------------|
a:-------------------------------|
f:-------------------------------|
c:-------------------------------|
g:-0~-3-7-5-7-0~--0~-3-7-5-7-10~-|
c:-------------------------------|

W/ distortion:
Before the Chorus:

d:-----------------------------------------|
a:-----------------------------------------|
f:-2~~-------------------------------------|
c:-2~~-------------------------------------|
g:-0~~-0-0-0-0-0-0-0-0-0-0-0-0-0-0-0-0-0-0-|
c:-----------------------------------------|

W/ distortion:
Chorus: X5

d:-----------------------------------------------|
a:-----------------------------------------------|
f:-2-2-2-2-2-2-2-2-2-2-2-2-2-5-5-5-5-5-----------|
c:-2-2-2-2-2-2-2-2-2-2-2-2-2-5-5-5-5-5-5-5-5-5-5-|
g:-0-0-0-0-0-0-0-0-0-0-0-0-0-3-3-3-3-3-5-5-5-5-5-|
c:-------------------------------------3-3-3-3-3-|

d:----------------------------------------------------|
a:----------------------------------------------------|
f:-2-2-2-2-2-2-2-2-2-2-2-2-2-5-5-5-5-5-10-10-10-10-10-|
c:-2-2-2-2-2-2-2-2-2-2-2-2-2-5-5-5-5-5-10-10-10-10-10-|
g:-0-0-0-0-0-0-0-0-0-0-0-0-0-3-3-3-3-3- 8- 8- 8- 8- 8-|
c:----------------------------------------------------|

W/ distortion:
Last Chorus:

d:-----------------------------------------------|
a:-----------------------------------------------|
f:-2-2-2-2-2-2-2-2-2-2-2-2-2-5-5-5-5-5-----------|
c:-2-2-2-2-2-2-2-2-2-2-2-2-2-5-5-5-5-5-5-5-5-5-5-|
g:-0-0-0-0-0-0-0-0-0-0-0-0-0-3-3-3-3-3-5-5-5-5-5-|
c:-------------------------------------3-3-3-3-3-|

d:---------------------------------------|
a:---------------------------------------|
f:-2-2-2-2-2-2-2-2-2-2-2-2-2-5~-10~-2~---|
c:-2-2-2-2-2-2-2-2-2-2-2-2-2-5~-10~-2~-0-|
g:-0-0-0-0-0-0-0-0-0-0-0-0-0-3~- 8~-0~-0-|
c:---------------------------------------|
Composição de Randy Fitzsimmons
249 exibições
    • ½ Tom
    • A
    • Bb
    • B
    • C
    • Db
    • D
    • Eb
    • E
    • F
    • F#
    • G
    • Ab
  • Adicionar à lista

    0 comentários

    Mostrar mais comentários

    Conseguiu tocar?

    0 Tocaram 0 Ainda não

    Grave um vídeo tocando Closed For The Season e mande pra gente!

    00:00 / 00:00
    outros vídeos desta música
    repetir qualidade Automático
    Outros vídeos desta música
    00:00 / 00:00
    Automático
    OK