Cifra Club

Aprenda

Hail Hail Spit N Drool

The Hives

Cifra: Principal (violão e guitarra)
Tom: G
album: Barely Legal

repeat 3 times:
E||--------------------------|--------------------------||
B||--------------------------|--------------------------||
G||-----------4--4--4--4--4--|--4--4--------------------||
D||--2--5--2--4--4--4--4--4--|--4--4--7--5--2--2--2--2--||
A||--2--5--2--2--2--2--2--2--|--2--2--7--5--2--2--2--2--||
E||--0--3--0-----------------|--------5--3--0--0--0--0--||

then:
E||-------------------------|------------------------||
B||-------------------------|------------------------||
G||-----------x--x--4----4--|----4-------------------||
D||--2--5--2--x--x--4----4--|----4--7--5--2--2----2--||
A||--2--5--2--x--x--2----2--|----2--7--5--2--2----2--||
E||--0--3--0----------------|-------5--3--0--0----0--||

repeat 6 times (at 3rd repetition pelle starts singing):
E||------------------------|------------------------||
B||------------------------|------------------------||
G||------------------------|--5--5--5--7----5----5--||
D||--7----7--7--7----7--7--|--5--5--5--7----5----5--||
A||--7----7--7--7----7--7--|--3--3--3--5----3----3--||
E||--5----5--5--5----5--5--|------------------------||
     i took my time...

first break:
E||--------------------------|---------------------------||
B||--------------------------|---------------------------||
G||--9--9--9--9--9--9--9--9--|--9--12--9--7--5--4--3--2--||
D||--9--9--9--9--9--9--9--9--|--9--12--9--7--5--4--3--2--||
A||--7--7--7--7--7--7--7--7--|--7--10--7--5--3--2--1--0--||
E||--------------------------|---------------------------||

repeat 4 times (pelle starts singing immediately):
E||------------------------|------------------------||
B||------------------------|------------------------||
G||------------------------|--5--5--5--7----5----5--||
D||--7----7--7--7----7--7--|--5--5--5--7----5----5--||
A||--7----7--7--7----7--7--|--3--3--3--5----3----3--||
E||--5----5--5--5----5--5--|------------------------||

second break:
E||-------------------|-------------------|-------------------|
B||-------------------|-------------------|-------------------|
G||-------------------|-------------------|-------------------|
D||--2----------------|--2----------------|--2----------------|
A||--2----------------|--2----------------|--2----------------|
E||--0----------------|--0----------------|--0----------------|

--------------------------|--------------------------|--------------||
--------------------------|--------------------------|--------------||
--9--8--7--6--5--4--3--2--|--------------------------|--------------||
--9--8--7--6--5--4--3--2--|--5--5--5--5--5--5--5--5--|--5--5--5--5--||
--7--6--5--4--3--2--1--0--|--5--5--5--5--5--5--5--5--|--5--5--5--5--||
--------------------------|--3--3--3--3--3--3--3--3--|--3--3--3--3--||
                             hail, hail...

now everything is repeated again, but you leave out the first break.

ending:
E||----------------------------||
B||----------------------------||
G||-----------4----------------||
D||--2--5--2--4----------------||
A||--2--5--2--2----------------||
E||--0--3--0-------------------||

Composição de Randy Fitzsimmons
292 exibições
    • ½ Tom
    • A
    • Bb
    • B
    • C
    • Db
    • D
    • Eb
    • E
    • F
    • F#
    • G
    • Ab
  • Adicionar à lista

    0 comentários

    Mostrar mais comentários

    Conseguiu tocar?

    0 Tocaram 0 Ainda não

    Grave um vídeo tocando Hail Hail Spit N Drool e mande pra gente!

    00:00 / 00:00
    outros vídeos desta música
    repetir qualidade Automático
    Outros vídeos desta música
    00:00 / 00:00
    Automático
    OK