Cifra Club

Aprenda

Inspection Wise 1999

The Hives

Cifra: Principal (violão e guitarra)
Tom: G
Lead Guitar (I)-Vigilante Carlstroem
Rhythm Guitar (II)-Nicholaus Arson

Guitar I-Middle
Guitar II-Treble

Key:
x-mute
()-ghost note

Gtr. I
Intro/Interlude:
                    (Pentonic Scale)
e---x-x-3-0-------------------------------x-x-3-0------|
b----------3-0-----------------------------------3-0---|
g----------------x-x-2-0------x-x-2-0------------------|
D-----------------------2-0----------2-0---------------|
A------------------------------------------------------|
E------------------------------------------------------|

Intro x3

Gtr. II
Intro:
   E5    D5 A5 D5 G5  A5 E5 B5 D5 A5
e--------------------------------------|
b--------------------------------------|
g-------777-----7--------99----77------|
D---2---777---7-7-5---77-99-99-77-77---|
A---2---555---7-5-5---77-77-99-55-77---|
E---0---------5---3---55----77----55---|

Gtr. II Intro x2

Verse:
   E5      D5     A5 D5 G5    A5 E5 B5 D5 A5
e----------------------------------------------|
b----------------------------------------------|
g----------777-xx----7-----------99----77------|
D---2-xxx--777-xx--7-7-5-xxx--77-99-99-77-77---|
A---2-xxx--555-xx--7-5-5-xxx--77-77-99-55-77---|
E---0--------------5---3-xxx--55----77----55---|

Verse x2

Gtr. II
Chorus:
           E5              D5          A5
e---------------------------------------------|
b---------------------------------------------|
g-------------------7-7-7-7-7-7-7-7-----------|
D---2-2-2-2-2-2-2-2-7-7-7-7-7-7-7-7-7-7-7-7---|
A---2-2-2-2-2-2-2-2-5-5-5-5-5-5-5-5-7-7-7-7---|
E---0-0-0-0-0-0-0-0-----------------5-5-5-5---|

Gtr. II Chorus x2

Gtr. I
           E                D
e---x-x-x-x-x-x-x-x-10-10-10-10-10-10-----------|
b---x-x-x-x-x-x-x-x-10-10-10-10-10-10-----------|
g---x-x-x-x-x-x-x-x-11-11-11-11-11-11-----------|
D---2-2-2-2-2-2-2-2-12-12-12-12-12-12-x-x-x-x---|
A---2-2-2-2-2-2-2-2-12-12-12-12-12-12-x-x-x-x---|
E---x-x-x-x-x-x-x-x-10-10-10-10-10-10-x-x-x-x---|

Gtr. I Chorus x2

Gtr. I
Bridge:

e---3-33---------(4)----------|
b-----------------------------|
g-----------------------------|
D-----------------------------|
A-----------------------------|
E-----------------------------|

Gtr. II

e---x-x-x-x-x-x-x-x-x-x-x-x---|
b---x-x-x-x-x-x-x-x-x-x-x-x---|
g---x-x-x-x-x-x-x-x-x-x-x-x---|
D---x-x-x-x-x-x-x-x-x-x-x-x---|
A---x-x-x-x-x-x-x-x-x-x-x-x---|
E---x-x-x-x-x-x-x-x-x-x-x-x---|

Interlude x1 w/out Gtr. II

Verse x2

Chorus x4

Gtr. I
Outro:

e---------------------------------|
b---------------------------------|
g---------------------------------|
D---22-2-2-22-2-2-22-2-2-22-2-2---|
A---22-2-2-22-2-2-22-2-2-22-2-2---|
E---------------------------------|

FIM  =]
Composição de Randy Fitzsimmons
1.772 exibições
    • ½ Tom
    • A
    • Bb
    • B
    • C
    • Db
    • D
    • Eb
    • E
    • F
    • F#
    • G
    • Ab
  • Adicionar à lista

    0 comentários

    Mostrar mais comentários

    Conseguiu tocar?

    0 Tocaram 0 Ainda não

    Grave um vídeo tocando Inspection Wise 1999 e mande pra gente!

    00:00 / 00:00
    outros vídeos desta música
    repetir qualidade Automático
    Outros vídeos desta música
    00:00 / 00:00
    Automático
    OK