Cifra Club

Aprenda

No Pun Intended

The Hives

Cifra: Principal (violão e guitarra)
Tom: A
chords so if u can't yet do bar chords just use power chords or something and
if u dont know what they r then go look 'em up!!! Anywayz, listen to the song
to get the timing im sure the intor is ok but im not 100% sure 'bout the interlude
but at least it works!

Tuning Standard

Intro:
---777-101010-55555555-141414-9-9-9-9-9-9-9-9--555------------|
---777-121212-77777777-161616-1111111111111111-555-77777777---|
---888-121212-77777777-161616-1111111111111111-666-77777777---|
---999-121212-77777777-161616-1111111111111111-777-77777777---|
---999-101010-55555555-141414-9-9-9-9-9-9-9-9--777-55555555---|
---777-----------------------------------------555------------|

---777-101010-555-141414-9-9-9-9-9-9-9-9--777-55555555---|
---777-121212-777-161616-1111111111111111-777-77777777---|
---888-121212-777-161616-1111111111111111-888-77777777---|
---999-121212-777-161616-1111111111111111-777-77777777---|
---999-101010-555-141414-9-9-9-9-9-9-9-9--777-55555555---|
---777------------------------------------555------------|

Verse and Chorus:
---777-101010-55555555-141414-9-9-9-9-9-9-9-9--555------------R
---777-121212-77777777-161616-1111111111111111-555-77777777---E
---888-121212-77777777-161616-1111111111111111-666-77777777---P X2
---999-121212-77777777-161616-1111111111111111-777-77777777---E
---999-101010-55555555-141414-9-9-9-9-9-9-9-9--777-55555555---A
---777-----------------------------------------555------------T

And then the interlude:
---9-9-9-9-9-9-9-9-9-9-9-9-9-9-9--14141414141414141414141414141414---|
---111111111111111111111111111111-16161616161616161616161616161616---|
---111111111111111111111111111111-16161616161616161616161616161616---|
---111111111111111111111111111111-16161616161616161616161616161616---|
---9-9-9-9-9-9-9-9-9-9-9-9-9-9-9--14141414141414141414141414141414---|
---------------------------------------------------------------------|

-----------------------------------------------------------|
-----------------------------------------------------------|
-----------------------------------------------------------|
---77777777-999999999-77777777-99999999-7777777777777777---|
---77777777-999999999-77777777-99999999-7777777777777777---|
---55555555-777777777-55555555-77777777-5555555555555555---|

Then when Pelle sings "Ten dead, but no pun" play this
e---7-7----7-7----|
B---9-9----9-9----|
G---9-9----9-9----|
D---9-9----9-9----|
A---7-7----7-7----|
E-----------------|

Song Structure:
Intro
Verse
Chorus
Intro 
Verse (x2)
Interlude
Verse
Chorus

Any probs e-mail me@ *
Composição de Randy Fitzsimmons
464 exibições
  • Simplificar cifra
    • ½ Tom
    • A
    • Bb
    • B
    • C
    • Db
    • D
    • Eb
    • E
    • F
    • F#
    • G
    • Ab
  • Adicionar à lista

    0 comentários

    Mostrar mais comentários

    Conseguiu tocar?

    0 Tocaram 0 Ainda não

    Grave um vídeo tocando No Pun Intended e mande pra gente!

    00:00 / 00:00
    outros vídeos desta música
    repetir qualidade Automático
    Outros vídeos desta música
    00:00 / 00:00
    Automático
    OK