Cifra Club

Aprenda

See Through Head

The Hives

Tab de baixo: Principal
Transcribed by Paul Cox

*

Please feel free to email me any indie/punk/metal/hardcore requests.


You don't have to own a Rickenbacker to play this but a touch of distortion and just downstrokes helps.

Standard EADG tuning

Intro

--------------------------------------------------|
--------------------------------------------------|
--------------------------------------------------|
-3-3-3-3-3-3-3-3-3-3-3-3-3-3-3-3-3-3-3-3-3-3-1-s/-|

---------------------------------------------------------------------|
---------------------------------------------------------------------|
10-10-10-10-10-10-10-10-10-10-10-10-10-10-10-10-10-10-10-10-10-10-10-|
---------------------------------------------------------------------|


Main Riff/Chorus
----------------------------------------------------------------|
----------------------------------------------------------------|
--------6-6-6-6-------6-6-6-6-------11-11-11-11-6-6-6-6-8-8-8-8-| x 2
-8-8-8-8-------4-4-4-4-------8-8-8-8----------------------------|


Pre Verse
-------------------------------------------|
-------------------------------------------|
-------------------------------------------| x 2
---6-h-8-8-8-8-----------------------------|


Verse

Eeh eh eh eh oh -
-----------------------------------|
-----------------------------------|
---------6-6-6-6-------6-6-6-6 x 8-|
6-8-8-8-8-------4-4-4-4------------|


Chorus
----------------------------------------------------------------|
----------------------------------------------------------------|
--------6-6-6-6-------6-6-6-6-------11-11-11-11-6-6-6-6-8-8-8-8-| x 2
-8-8-8-8-------4-4-4-4-------8-8-8-8----------------------------|


Pre Verse
-------------------------------------------|
-------------------------------------------|
-------------------------------------------| x 2
---6-h-8-8-8-8-----------------------------|

Verse

Eeh eh eh eh oh  -
-----------------------------------|
-----------------------------------|
---------6-6-6-6-------6-6-6-6 x 8-|
6-8-8-8-8-------4-4-4-4------------|


Chorus

----------------------------------------------------------------|
----------------------------------------------------------------|
--------6-6-6-6-------6-6-6-6-------11-11-11-11-6-6-6-6-8-8-8-8-| x 2
-8-8-8-8-------4-4-4-4-------8-8-8-8----------------------------|


Bridge

--------------------------------------------------|
--------------------------------------------------|
--------------------------------------------------|
-3-3-3-3-3-3-3-3-3-3-3-3-3-3-3-3-3-3-3-3-3-3-1-s/-|

---------------------------------------------------------------------|
---------------------------------------------------------------------|
10-10-10-10-10-10-10-10-10-10-10-10-10-10-10-10-10-10-10-10-10-10-10-|
---------------------------------------------------------------------|

Chorus
----------------------------------------------------------------|
----------------------------------------------------------------|
--------6-6-6-6-------6-6-6-6-------11-11-11-11-6-6-6-6-8-8-8-8-| x 4
-8-8-8-8-------4-4-4-4-------8-8-8-8----------------------------|

Manic!
Composição de Randy Fitzsimmons
125 exibições

0 comentários

Mostrar mais comentários

Conseguiu tocar?

0 Tocaram 0 Ainda não

Grave um vídeo tocando See Through Head e mande pra gente!

00:00 / 00:00
outros vídeos desta música
repetir qualidade Automático
Outros vídeos desta música
00:00 / 00:00
Automático
OK