Cifra Club

Aprenda

Walk Idiot Walk

The Hives

Cifra: Principal (violão e guitarra)
Tom: G
Intro:
|-----------------------------R
|-9-9--7---14-14--12--14-15---E
|-9-9--7---14-14--12--14-14---P
|-9-9--7---14-14--12----------E
|-----------------------------A
|-----------------------------T TILL VERSE

Verse:
|--0-0-0-0-0-0-0-0-0-0-0--|
|--3-3-3-2-2-2-2-1-1-1-0--|
|-------------------------|
|-------------------------|
|-------------------------|
|-------------------------|

See the idiot walk...
|-----------------------------R
|-9-9--7---14-14--12--14-15---E
|-9-9--7---14-14--12--14-14---P
|-9-9--7---14-14--12----------E
|-----------------------------A
|-----------------------------T 

Chorus:
 This is what i need...
|---------------------------------------------------------------|
|---------------------------------------------------------------|
|---------------------------------------------------------------|
|-5-5-5-5-5-5-5-5--4-4-4-4-4-4-4-4--5-5-5-5-5-5-5-5-------------|
|-5-5-5-5-5-5-5-5--4-4-4-4-4-4-4-4--5-5-5-5-5-5-5-5--4brbrbrbr--|
|-3-3-3-3-3-3-3-3--2-2-2-2-2-2-2-2--3-3-3-3-3-3-3-3-------------|


|-----------------------------R
|-9-9--7---14-14--12--14-15---E
|-9-9--7---14-14--12--14-14---P
|-9-9--7---14-14--12----------E
|-----------------------------A
|-----------------------------T 
Verse:
|--0-0-0-0-0-0-0-0-0-0-0--|
|--3-3-3-2-2-2-2-1-1-1-0--|
|-------------------------|
|-------------------------|
|-------------------------|
|-------------------------|

|-----------------------------R
|-9-9--7---14-14--12--14-15---E
|-9-9--7---14-14--12--14-14---P
|-9-9--7---14-14--12----------E
|-----------------------------A
|-----------------------------T 

Chorus:
 This is what i need...
|---------------------------------------------------------------|
|---------------------------------------------------------------|
|---------------------------------------------------------------|
|-5-5-5-5-5-5-5-5--4-4-4-4-4-4-4-4--5-5-5-5-5-5-5-5-------------|
|-5-5-5-5-5-5-5-5--4-4-4-4-4-4-4-4--5-5-5-5-5-5-5-5--4brbrbrbr--|
|-3-3-3-3-3-3-3-3--2-2-2-2-2-2-2-2--3-3-3-3-3-3-3-3-------------|

|-----------------------------R
|-9-9--7---14-14--12--14-15---E
|-9-9--7---14-14--12--14-14---P
|-9-9--7---14-14--12----------E
|-----------------------------A
|-----------------------------T 

BASS!


|-----------------------------R
|-9-9--7---14-14--12--14-15---E
|-9-9--7---14-14--12--14-14---P
|-9-9--7---14-14--12----------E
|-----------------------------A
|-----------------------------T 

Chorus:
 This is what i need...
|---------------------------------------------------------------|
|---------------------------------------------------------------|
|---------------------------------------------------------------|
|-5-5-5-5-5-5-5-5--4-4-4-4-4-4-4-4--5-5-5-5-5-5-5-5-------------|
|-5-5-5-5-5-5-5-5--4-4-4-4-4-4-4-4--5-5-5-5-5-5-5-5--4brbrbrbr--|
|-3-3-3-3-3-3-3-3--2-2-2-2-2-2-2-2--3-3-3-3-3-3-3-3-------------|


|-----------------------------R
|-9-9--7---14-14--12--14-15---E
|-9-9--7---14-14--12--14-14---P
|-9-9--7---14-14--12----------E
|-----------------------------A
|-----------------------------T 



-====-
Lyrics
-====-

Well, Is it true what they say about it
You wanna do what I do and I doubt it
And then they tell you anything about it
Yeah, I know

I got some people say it's this way
I got some people say it's that way
And then some people say there's no way
Hell, I know

[Chorus:]
See that idiot walk
See that idiot talk
See that idiot shock up his name on the backboard
Artist: The Hives
Song: Walk Idiot walk

See that robot walk
See that robot talk
See that robot write up his name on the battle
They say this is all I need you to get by
The truth is, baby, it's a lie-ie-ie-ie-ie

Well, Is it true what they say about it
You gotta do what I do and I doubt it
I announce I wanna do something about it
Ain't it fair

I got some people doing it this way
I got some people doing it that way
And then some people
Ain't it fair

[Chorus]

I got a martulation
And through a miracle of bad equation
You gave up and you started thinking
They were true

If you are beauty and combination 
Body at work and a mind on vacation
We're on a tray we started thinking 
It was you

[Chorus]
Composição de Randy Fitzsimmons
8.731 exibições
    • ½ Tom
    • A
    • Bb
    • B
    • C
    • Db
    • D
    • Eb
    • E
    • F
    • F#
    • G
    • Ab
  • Adicionar à lista

    0 comentários

    Mostrar mais comentários

    Conseguiu tocar?

    0 Tocaram 0 Ainda não

    Grave um vídeo tocando Walk Idiot Walk e mande pra gente!

    00:00 / 00:00
    outros vídeos desta música
    repetir qualidade Automático
    Outros vídeos desta música
    00:00 / 00:00
    Automático
    OK