Cifra Club

Top Of The World

The Juliana Theory

Tab de baixo: Principal
exibições 406
I like how this one sounds ^^

Bass Tab


"We're on the top of the world"
1.
G|--------------------------|
D|------------2----3--7-5-3-|
A|-12-1~--0-33-3-55-5-------|
E|--------------------------|

"We got a lot of time.." x2
2.
G|--------------------------|
D|---------2----3--7-5-3----|
A|-1~--0-33-3-55-5----------|
E|--------------------------|

"You can take me anywhere.."
3.
G|--------------------|
D|---------2----3-----|
A|-1~--0-33-3-55-5x---|
E|--------------------|

Chorus:
"Sha-la-la-la.." x4
4.
G|-------------------------|
D|-------------------------|
A|-3333-111111/8888-333333-|
E|-------------------------|

"We're on the top of the world.."
5.
G|--------------------------|
D|------------2----3--7-5-3-|
A|-12-1~--0-33-3-55-5-------|
E|--------------------------|

"We got a lot of time.." x2
6.
G|--------------------------|
D|---------2----3--7-5-3----|
A|-1~--0-33-3-55-5----------|
E|--------------------------|

"I'm up here running in repeat..."
7.
G|--------------------|
D|---------2----3-----|
A|-1~--0-33-3-55-5x---|
E|--------------------|

Repeat chorus x4

Then little soft part: x4
8.
G|----------------|
D|----------------|
A|-1~--3~--5~--0~-|
E|----------------|

"Cus you reach in your pocket.." x2
9.
G|-----------------------|
D|-----------------------|
A|-1x-1-3x-3-5x-5-0x-0x--|
E|-----------------------|

"You can take me anywhere..!" x3
10.
G|---------------------------|
D|---------2----3--7-5-3-----|
A|-1~--0-33-3-55-5-----------|
E|---------------------------|

"You can take me anywhere.."
11.
G|--------------------|
D|---------2----3-----|
A|-1~--0-33-3-55-5x---|
E|--------------------|

Chorus
___

Great song!
I hope u enjoy playing it
Please rate!

Lyrics -->
__________

You and I
We got a lot of time
And it sure feels right
Cus you reach in your pocket
And pull out a pass it says:
You can take me anywhere

Sha-la-la-la.. Sha-la-la-la-la-la-la

Here tonight
We got a lot of time
And it sure feels right
Cus I'm up here runnin behing you
I'm up here runnin in repeat..

Sha-la-la-la.. Sha-la-la-la-la-la-la

_____________

RaiLeff
Underground_Dora@*
Composição: Brett Detar

0 comentários

mostrar mais comentários

Conseguiu tocar?

0 tocaram 0 ainda não

Grave um vídeo tocando Top Of The World e mande pra gente!

00:00 / 00:00
outros vídeos desta música
repetir qualidade Automático
Outros vídeos desta música
00:00 / 00:00
Automático
OK