All These Things That I've Done

The Killers

Composição de: Brandon Flowers
tom: B
Album:  Hot Fuss
Tabber: Trent Steel

r = ring
~ = vibrate
b = bend
/ = slide
pm= palm mute


Intro:

 Main Riff
e|---------------------------------------------------------------------|
B|---------------------------------------------------------------------|
G|---------------------------------------------------------------------|  x2
D|-11b--------------11b--------------11b-------------------------------|
A|----13-14-11-9~-------13-14-11-9~-----13-14-13-14-13-13-14-13-14r----|
E|---------------------------------------------------------------------|
 



Verse 1:


        "I Want To Shine On Through The Hearts Of Men"
e|-2-2-2-2-2-2-2-2-2-2-2-2-2-2-2-2-2-2-2-2-2-2-2-2-2-2-2-2-2-2-2-2----| 
B|-2-2-2-2-2-2-2-2-2-2-2-2-2-2-2-2-2-2-2-2-2-2-2-2-2-2-2-2-2-2-2-2----| 
G|-3-3-3-3-3-3-3-3-3-3-3-3-3-3-3-3-3-3-3-3-3-3-3-3-3-3-3-3-3-3-3-3----| 
D|-4-4-4-4-4-4-4-4-4-4-4-4-4-4-4-4-4-4-4-4-4-4-4-4-4-4-4-4-4-4-4-4----|
A|-4-4-4-4-4-4-4-4-4-4-4-4-4-4-4-4-4-4-4-4-4-4-4-4-4-4-4-4-4-4-4-4----|
E|-2-2-2-2-2-2-2-2-2-2-2-2-2-2-2-2-2-2-2-2-2-2-2-2-2-2-2-2-2-2-2-2----|

e|---------------------------------------------------------------------|
B|---------------------------------------------------------------------|
G|---------------------------------------------------------------------|  x2
D|-11b--------------11b--------------11b-------------------------------|
A|----13-14-11-9~-------13-14-11-9~-----13-14-13-14-13-13-14-13-14r----|
E|---------------------------------------------------------------------|





Chorus:     

                "Yeah Yeah, You Gotta Help Me Out Now"
e|-2-2-2-2-2-2-2-2-2-2-2-2-2-2--7-7-7-7-7-7-7-7--2-2-2-2-2-2-2-----------| 
B|-2-2-2-2-2-2-2-2-2-2-2-2-2-2--7-7-7-7-7-7-7-7--2-2-2-2-2-2-2-----------| 
G|-3-3-3-3-3-3-3-3-3-3-3-3-3-3--8-8-8-8-8-8-8-8--3-3-3-3-3-3-3-----------| 
D|-4-4-4-4-4-4-4-4-4-4-4-4-4-4--9-9-9-9-9-9-9-9--4-4-4-4-4-4-4-----------|
A|-4-4-4-4-4-4-4-4-4-4-4-4-4-4--9-9-9-9-9-9-9-9--4-4-4-4-4-4-4-----------|
E|-2-2-2-2-2-2-2-2-2-2-2-2-2-2--7-7-7-7-7-7-7-7--2-2-2-2-2-2-2-----------|





Verse 2:

 Main Riff        "Is There Room For One More Sun"
e|---------------------------------------------------------------------|
B|---------------------------------------------------------------------|
G|---------------------------------------------------------------------|  
D|-11b--------------11b--------------11b-------------------------------|
A|----13-14-11-9~-------13-14-11-9~-----13-14-13-14-13-13-14-13-14r----|
E|---------------------------------------------------------------------|


Chorus:     

                "Yeah Yeah, You Gotta Help Me Out Now"
e|-2-2-2-2-2-2-2-2-2-2-2-2-2-2--7-7-7-7-7-7-7-7--2-2-2-2-2-2-2-----------| 
B|-2-2-2-2-2-2-2-2-2-2-2-2-2-2--7-7-7-7-7-7-7-7--2-2-2-2-2-2-2-----------| 
G|-3-3-3-3-3-3-3-3-3-3-3-3-3-3--8-8-8-8-8-8-8-8--3-3-3-3-3-3-3-----------| 
D|-4-4-4-4-4-4-4-4-4-4-4-4-4-4--9-9-9-9-9-9-9-9--4-4-4-4-4-4-4-----------|
A|-4-4-4-4-4-4-4-4-4-4-4-4-4-4--9-9-9-9-9-9-9-9--4-4-4-4-4-4-4-----------|
E|-2-2-2-2-2-2-2-2-2-2-2-2-2-2--7-7-7-7-7-7-7-7--2-2-2-2-2-2-2-----------|



Verse 3:

                "I Got Soul But I'm Not A Soldier"
e|-------------------------------------------------------------| R
B|-------------------------------------------------------------| E
G|------------------------4-4-4-4-4-4-4-4----------------------| P
D|-4-4-4-4-4-4-4-4-4-4-4--4-4-4-4-4-4-4-4--4-4-4-4-4-4-4-4-4-4-| E
A|-4-4-4-4-4-4-4-4-4-4-4--2-2-2-2-2-2-2-2--4-4-4-4-4-4-4-4-4-4-| A
E|-2-2-2-2-2-2-2-2-2-2-2-------------------2-2-2-2-2-2-2-2-2-2-| T
        





Chorus:
                "Your Gonna Bring Yourself Down"
e|-2-2-2-2-2-2-2-2-2-2-2-2-2-2--7-7-7-7-7-7-7-7--2-2-2-2-2-2-2-----------| 
B|-2-2-2-2-2-2-2-2-2-2-2-2-2-2--7-7-7-7-7-7-7-7--2-2-2-2-2-2-2-----------| 
G|-3-3-3-3-3-3-3-3-3-3-3-3-3-3--8-8-8-8-8-8-8-8--3-3-3-3-3-3-3-----------| 
D|-4-4-4-4-4-4-4-4-4-4-4-4-4-4--9-9-9-9-9-9-9-9--4-4-4-4-4-4-4-----------|
A|-4-4-4-4-4-4-4-4-4-4-4-4-4-4--9-9-9-9-9-9-9-9--4-4-4-4-4-4-4-----------|
E|-2-2-2-2-2-2-2-2-2-2-2-2-2-2--7-7-7-7-7-7-7-7--2-2-2-2-2-2-2-----------|



Outro:


        "With All These Things That I've Done"
e|---------------------------------------------------------------------|
B|---------------------------------------------------------------------|
G|---------------------------------------------------------------------| 
D|-11b--------------11b--------------11b-------------------------------|
A|----13-14-11-9~-------13-14-11-9~-----13-14-13-14-13-13-14-13-14r----|
E|---------------------------------------------------------------------|


Thats most of it done there is slightly different chord changes near the end
but you can figure them out they're easy.  Listen to the song for timing
and go by Hot Fuss.
Página 1 / 1

Letras e título
Acordes e artista

resetar configurações
OK