Mr Brightside Intro

The Killers

tom: Db
E|-------------0-----------------------0----------|
B|---------------17----------------------17-------|
G|-------19---------19-----------19---------19----|
D|----16----16---------16-----16----16---------16-|
A|-17----------------------16---------------------|
E|------------------------------------------------|

E|-------------0----------------------0--------|
B|---------------17---------------------17-----|
G|-------19---------19----------19---------19--|
D|----16----16---------16----16----16----------|
A|---------------------------------------------|
E|-15---------------------15-------------------|

Página 1 / 1

Letras e título
Acordes e artista

resetar configurações
OK