Cifra Club

Aprenda

A Luz Brilha

The Kira Justice

Tab de baixo: Principal
(afinação 1/2 tom abaixo)

(intro)
Gb--------------------------------------
Db--------------------------------------
Ab-1/10-9-7-7/15-15-17-15-12-14---------
Db--------------------------------------

(verso 2x)
Gb-------------------------------------14--------
Db-------12---------9-7-9-10-10-9-12-12----------
Ab-10-10---10-9-7-7----------------------12-14---
Db-----------------------------------------------

(refrão)
Gb-----------------------------------------------
Db-----------------------------------------------
Ab--------------------0022333333-2233555555-9977-
Db-55555557755-2222222---------------------------

Gb----------------------------------------------------
Db----------------------------------------------------
Ab--------------------0022333333-7799/171717171717\10-
Db-55555557755-2222222--------------------------------

(final)
Gb-----------------------------
DB-----------------------------
Ab-----------------------------
Db-5---------------------------
Composição de The Kira Justice
Colaboração e revisão:
  • Banda Justice
263 exibições

0 comentários

Mostrar mais comentários

Conseguiu tocar?

0 Tocaram 0 Ainda não

Grave um vídeo tocando A Luz Brilha e mande pra gente!

00:00 / 00:00
outros vídeos desta música
repetir qualidade Automático
Outros vídeos desta música
00:00 / 00:00
Automático

Cifra Club Pro

Aproveite o Cifra Club com benefícios exclusivos e sem anúncios
7 dias grátis
Cifra Club Pro
Aproveite o Cifra Club com benefícios exclusivos e sem anúncios
7 dias grátis
OK