Cifra Club

Aprenda

Again

The Kira Justice

Cifra: Principal (violão e guitarra)
Tom: F# (forma dos acordes no tom de G) Afinação: Eb Ab Db Gb Bb Eb
 Dsus2
E|-0---0-----0-----0------|
B|--3----3-----3-----3----|
G|---2-----2-----2-----2--|
D|------------------------|
A|------------------------|
E|------------------------|

Não me diga que não tem forças para mudar o que passou
Para consertar tudo aquilo que você um dia errou

( Em D C B7 ) (x2)
( B7 )

Intro solo:

E|---------------------------------------|-------------------------------7|
B|------8-7---------8-7-8/10-8-7---------|-8-7---------8-7-----------------8|
G|----7-----7-----7--------------8-----7-|-----7-----7-----8^^^8^^--8/9------9|
D|-/9----------/9-------------------/9---|--------/9------------------|
A|---------------------------------------|----------------------------|
E|---------------------------------------|----------------------------|

Em               D               C
Decidimos seguir pelo caminho que em meus sonhos vi
Em             D                C
Mas fomos encontrar pessoas que nos fizeram tropeçar
Em                                   D
Não é que eu queira reviver o que já passou
                                      C
Eu sei que o tempo para achar meu céu já acabou
Em
Eu não preciso de você tendo pena de mim
D                            C
E talvez você nem saiba como é estar assim
Em
Pois chorar é apenas o começo
Em
No coração sempre haverá um medo
C                             D
De se perder em coisas que não entende e tenta escapar
Em                              Em
Agora vou deixar tudo pra fora, pois eu sei, chegou a minha hora
C                     D
De encarar o que chamo de realidade, mas se
C            D
Está comigo, escute o que digo
Em           A              B
E ouça essa voz que insiste em gritar
C           D             Em           A         B
Que já não temos um lugar para voltar, nem tempo pra esperar


C              D
Eu te agradeço a gentileza
Em             A           B
Mas preciso de forças (e minhas certezas)
C                D                        ( Em )
Que tinha antes, mesmo que vá me machucar
Composição de Matheus Lynar
Colaboração e revisão:
  • fillypeize hoffman
2.126 exibições
    • ½ Tom
    • A
    • Bb
    • B
    • C
    • Db
    • D
    • Eb
    • E
    • F
    • F#
    • G
    • Ab
  • Adicionar à lista

    0 comentários

    Mostrar mais comentários

    Conseguiu tocar?

    1 Tocaram 0 Ainda não

    Grave um vídeo tocando Again e mande pra gente!

    00:00 / 00:00
    outros vídeos desta música
    repetir qualidade Automático
    Outros vídeos desta música
    00:00 / 00:00
    Automático

    Cifra Club Pro

    Aproveite o Cifra Club com benefícios exclusivos e sem anúncios
    7 dias grátis
    Cifra Club Pro
    Aproveite o Cifra Club com benefícios exclusivos e sem anúncios
    7 dias grátis
    OK