Cifra Club

Aprenda

Contando Estrelas

The Kira Justice

Tab de baixo: Principal
(afinação Db)

(intro)
Gb---------------------------------------
Db---------------------------------------
Ab-2-2222-2-2-2222-2-2222-55-5555-5-5555-
Db---------------------------------------

Gb----------------------------------------
Db-9-99999-99999-9-99999-11-9-7-9-7-5-7-5-
Ab----------------------------------------
Db----------------------------------------

Gb--------------------------------------
Db--------------------------------------
Ab-5-55555-55555-5-55555-7-5-3-5-3-1-3--
Db--------------------------------------

(verso 2x)
Gb---5-4-2---7-5-4----------------------
Db--------------------------------------
Ab-2-------2---------5-4-2---7-5-4------
Db-----------------0-------0------------

(pré-refrão)
Gb--------------------------------------
Db--------------------------------------
Ab-22222------22222---------------------
Db-------0/12-------4/16-15\7-----------

(refrão)
Gb-------------------------------------------------------
Db------7---5----------4---2-----------------------------
Ab-55-5---7---754-22-2---4---420------457----5555-7777-5-
Db-------------------------------5555-----77-------------

Gb-----------------------------------------------------------
Db------7---5----------4---2---------------------------------
Ab-55-5---7---754-22-2---4---420------457----5555/19191919-5-
Db-------------------------------5555-----77-----------------

Gb--------------------------------------
Db--------------------------------------
Ab-5-4----------------------------------
Db--------------------------------------

(verso)
Gb---------------------------------------------------
Db---------------------------------------------------
Ab-2-22222-2222222-2-222222--------------------------
Db--------------------------0-00000-0000000-0-000000-

Gb----------------------------------------
Db-9-99999-99999-9-99999-11-9-7-9-7-5-7-5-
Ab----------------------------------------
Db----------------------------------------

Gb--------------------------------------
Db--------------------------------------
Ab-5-55555-55555-5-55555-7-5-3-5-3-1-3--
Db--------------------------------------

(repete pré-refrão e refrão)

(ponte)(parte lenta)
Gb--------------------------------------
Db--------------------------------------
Ab-2-2-0-----------------------------------
Db-------5-------------------------------

Gb--------------------------------------
Db--------------------------------------
Ab--------------------------------------
Db-000-10/12---------------------------- (4x)

(ponte) (parte rápida)
Gb--------------------------------------
Db--------------------------------------
Ab--------------------------------------
Db-7-00-40504-000000-------------------- (5x)

Gb--------------------------------------
Db--------------------------------------
Ab---------------0-12\------------------
Db-0------------------------------------

(repete refrão)

(outro)
Gb------------------------------------------------------------------------
Db------------------------------------------------------------------------
Ab-5555555555554422222222222-00----------------------5555/19191919\5-542\-
Db------------------------------55555555555777777777----------------------
Composição de The Kira Justice
Colaboração e revisão:
  • Banda Justice
262 exibições

0 comentários

Mostrar mais comentários

Conseguiu tocar?

0 Tocaram 0 Ainda não

Grave um vídeo tocando Contando Estrelas e mande pra gente!

00:00 / 00:00
outros vídeos desta música
repetir qualidade Automático
Outros vídeos desta música
00:00 / 00:00
Automático

Cifra Club Pro

Aproveite o Cifra Club com benefícios exclusivos e sem anúncios
7 dias grátis
Cifra Club Pro
Aproveite o Cifra Club com benefícios exclusivos e sem anúncios
7 dias grátis
OK