Cifra Club

Aprenda

GO!

The Kira Justice

Cifra: Principal (violão e guitarra)
Tom: B
E|----------------------------------------------
B|----------------------------------------------
G|-4~~444~~444~~-----4---4----------------------
D|-4~~444~~444~~SLIDE4---4-SLIDE|----------------
A|-2~~222~~222-------22222----------------------
E|----------------------------------------------

B         E       F#           E
Lutaremos juntos! Como grandes sonhadores
B      E       F#             E
Sempre juntos! Sei que seremos vencedores
B      E       F#            E
Sempre juntos! Não importa o que aconteça
B  E   F#        B
Eu vou vencer eu sei!
E|----------------------------------------------
B|----------------------------------------------
G|-4~~5~~4-------------------------------------- 4X
D|-4~~5~~4--------------------------------------
A|-2~~3~~2--------------------------------------
E|----------------------------------------------

B             C
Aqui e agora (vai!)
E
Vai pra cima, de qualquer jeito
B             C
Aqui e agora (vai!)
E
Queime a chama dentro do seu peito
B             C
Aqui e agora (vai!)
E
Vai pra cima, de qualquer jeito
B             C
Aqui e agora (vai!)
B                     E
Até onde posso chegar se machucar os outros
F#                    B
Nesses conflitos eu posso até me perder
B                     E
Abandonamos tudo então pra esquecer de um mundo
F#                      E
Que todo lutam pra poder não enxergar
B                                  E
Abra os olhos pra ver este momento aqui
F#                      B
Que esperamos pela vida inteira (yeah yeah)
B            E              F#                 B
Não há tempo a perder então vem pra cá, que já vai começar

B         E       F#           E
Lutaremos juntos! Como grandes sonhadores
B      E       F#             E
Sempre juntos! Sei que seremos vencedores
B      E       F#            E
Sempre juntos! Não importa o que aconteça
B  E   F#        B
Eu vou vencer eu sei!
E|----------------------------------------------
B|----------------------------------------------
G|-4~~5~~4--------------------------------------
D|-4~~5~~4--------------------------------------
A|-2~~3~~2--------------------------------------
E|----------------------------------------------

B             C
Aqui e agora (vai!)
E
Vai pra cima, de qualquer jeito
B             C
Aqui e agora (vai!)

B                             E
O escuro vem se aproximando sem fazer barulho
F#                           B
Pra confundir e novamente te cegar
B                      E                 F#
Se afaste dessa sombra então, siga o seu caminho
                        B
Acabe com o que vier te enfrentar
B                                  E
Com seus punhos então você leva pro chão
F#                     B
Quem pensa que pode te derrubar (yeah yeah)
B                E             F#                B
Sempre em frente se não existe direção que possa confiar
B         E       F#           E
Lutaremos juntos! Como grandes sonhadores
B      E       F#             E
Sempre juntos! Sei que seremos vencedores
B      E       F#            E
Sempre juntos! Não importa o que aconteça
B  E   F#        B
Eu vou vencer eu sei!

E|----------------------------------------------
B|----------------------------------------------
G|-4~~5~~4-------------------------------------- 4X
D|-4~~5~~4--------------------------------------
A|-2~~3~~2--------------------------------------
E|----------------------------------------------


B             C
Aqui e agora (vai!)
E
Vai pra cima, de qualquer jeito
B             C
Aqui e agora (vai!)
E
Queime a chama dentro do seu peito
B             C
Aqui e agora (vai!)
E
Vai pra cima, de qualquer jeito
B             C
Aqui e agora (vai!)
E
Queime a chama dentro do seu peito
Lutaremos juntos! Ao lado de nossos amigos
Sempre juntos! Passamos por qualquer perigo
Sempre juntos! Se estiver sempre comigo
Eu vou

B         E       F#           E
Lutaremos juntos! Como grandes sonhadores
B      E       F#             E
Sempre juntos! Sei que seremos vencedores
B      E       F#            E
Sempre juntos! Não importa o que aconteça
B  E   F#        B
Eu vou vencer eu sei!
 B       E           F3
(Siga em frente onde quer que vá)
B
Ah eu sei
 B         E       F#
(Não desista de se aventurar)
B
Ah eu sei
 B                   E
(Siga em frente onde quer que vá)
 F#                       B
(Não desista de se aventurar)
E|----------------------------------------------
B|----------------------------------------------
G|-4~~5~~4-------------------------------------- 4X
D|-4~~5~~4--------------------------------------
A|-2~~3~~2--------------------------------------
E|----------------------------------------------


B             C
Aqui e agora (vai!)
E
Vai pra cima, de qualquer jeito
B             C
Aqui e agora (vai!)
E
Queime a chama dentro do seu peito
B             C
Aqui e agora (vai!)
E
Vai pra cima, de qualquer jeito
B             C
Aqui e agora (vai!)
E
Queime a chama dentro do seu peito
( B )
Bang
Colaboração e revisão:
  • fillypeize hoffman
2.621 exibições
    • ½ Tom
    • A
    • Bb
    • B
    • C
    • Db
    • D
    • Eb
    • E
    • F
    • F#
    • G
    • Ab
  • Adicionar à lista

    0 comentários

    Mostrar mais comentários

    Conseguiu tocar?

    1 Tocaram 0 Ainda não

    Grave um vídeo tocando GO! e mande pra gente!

    00:00 / 00:00
    outros vídeos desta música
    repetir qualidade Automático
    Outros vídeos desta música
    00:00 / 00:00
    Automático

    Cifra Club Pro

    Aproveite o Cifra Club com benefícios exclusivos e sem anúncios
    7 dias grátis
    Cifra Club Pro
    Aproveite o Cifra Club com benefícios exclusivos e sem anúncios
    7 dias grátis
    OK