Cifra Club

Aprenda

Não Quero Acordar

The Kira Justice

Cifra: Principal (violão e guitarra)
Tom: G
Intro (2x)

        G       D         Em       D
     e|------3-2------------0--------2----|
     B|----------3---------0--------3-----|
     G|-----------0-------0--------2------|
     D|----0-------------2--------0-------|
     A|---2-------------------------------|
     E|--3--------------------------------|

        G       D     C9    D9
     e|------3-2-------------0------------|
     B|----------3------3-----3-----------|
     G|-----------0----0----2-------------|
     D|----0----------2----0--------------|
     A|---2----------3--------------------|
     E|--3--------------------------------|


     e|-----2---3---2--3----3-------------|
     B|------3----3--3---3----------------|
     G|---2---2----2--2---2---------------|
     D|--0--------------------------------|
     A|-----------------------------------|
     E|-----------------------------------|



G                      Em    D
 E não há mais ninguém como você
G                   C9       D9
 Que me faça falta desse jeito
G                      Em         D
 Que aqueça o frio que há em meu peito
G                      C9    D9   Em
 E por isso eu sempre vou te proteger
                           D         C
 E tem certas coisas que eu preciso te dizer
Em                    D
 E eu vou falar para você
      (C)↓↓↓↓↓↓↓
 entendeeeeeeeer

      G                  Em
Só te peço me leve pra sempre
 D               C
 Dentro do seu olhar
      G                     Em
Se estar com você for um sonho
Bm7                C
Eu não quero acordar

        G                 Em
Para estar ao seu lado denovo
 D                C
 Vou a qualquer lugar
      G                     Em
Se estar com você for um sonho
Bm7                C
Eu não quero acordar
D
 Não quero acordar

Intro (2x)
Composição de Matheus Lynar
Colaboração e revisão:
9.678 exibições
    • ½ Tom
    • A
    • Bb
    • B
    • C
    • Db
    • D
    • Eb
    • E
    • F
    • F#
    • G
    • Ab
  • Adicionar à lista

    0 comentários

    Mostrar mais comentários

    Conseguiu tocar?

    10 Tocaram 3 Ainda não

    Grave um vídeo tocando Não Quero Acordar e mande pra gente!

    00:00 / 00:00
    outros vídeos desta música
    repetir qualidade Automático
    Outros vídeos desta música
    00:00 / 00:00
    Automático

    Cifra Club Pro

    Aproveite o Cifra Club com benefícios exclusivos e sem anúncios
    7 dias grátis
    Cifra Club Pro
    Aproveite o Cifra Club com benefícios exclusivos e sem anúncios
    7 dias grátis
    OK