Cifra Club

Aprenda

Quando Seu Coração Parar de Bater

The Kira Justice

Tab de baixo: Principal
(afinação Db)

(intro 2x)
Gb----------------------------------------------
Db----------------------------------------------
Ab----------------------------------------------
Db-000-244555-544222-45577777-555x555x-444x444x-

(verso 2x)
Gb----------------------------------------------
Db----------------------------------------------
Ab----------------------------------------------
Db-000-244555-544222-45577777-555x555x-444x444x-

(pré-refrão)
          P               P               P
Gb----------------------------------------------------------------------
Db--------2---------------7---------------2-----------------------------
Ab----------------------------------------------------------------------
Db-222-22---22-222-777-77---77-777-222-22---22-222-555x555x-444x444x----

          P               P               P
Gb-----------------------------------------------------------------------
Db--------2---------------7---------------2------------------------------
Ab-----------------------------------------------------------------------
Db-222-22---22-222-777-77---77-777-222-22---22-222-\17171717171717/44444-

(refrão)
Gb------------------------------------------------------------------
Db----------2----------------4-5-4----------------------------------
Ab------2-4---4-2--------5-7-------4-55555555555-750----------------
Db-2222-----------4-5555-----------------------------44444464464464-

Gb-------------------------------------------------------------------
Db----------2----------------4-5-4-----------------------------------
Ab------2-4---4-2--------5-7-------4-55555555555/212121212121\---2\7-
Db-2222-----------4-5555---------------------------------------2-----

Hey hey
Gb--------------------------------------
Db--------------------------------------
Ab-7-7-7-7-7-7-7-7-7-7-7-7--------------
Db--------------------------------------

(repete verso, pré-refrão, refrão e hey)

(solo)
Gb--------------------------------------
Db--------------------------------------
Ab--------------555555------------------
Db-222222-555555-------444444----------- (3x)

Gb--------------------------------------
Db--------------------------------------
Ab--------------555555------------------
Db-222222-555555-------4-4-4-4--------- 

(repete refão e hey)
Composição de The Kira Justice
Colaboração e revisão:
  • Banda Justice
1.852 exibições

0 comentários

Mostrar mais comentários

Conseguiu tocar?

0 Tocaram 0 Ainda não

Grave um vídeo tocando Quando Seu Coração Parar de Bater e mande pra gente!

00:00 / 00:00
outros vídeos desta música
repetir qualidade Automático
Outros vídeos desta música
00:00 / 00:00
Automático

Cifra Club Pro

Aproveite o Cifra Club com benefícios exclusivos e sem anúncios
7 dias grátis
Cifra Club Pro
Aproveite o Cifra Club com benefícios exclusivos e sem anúncios
7 dias grátis
OK