Jane

The Loved Ones

Composição de: Dave Hause / The Loved Ones
tom: F#
Tabber- array45

hey guys. i dont kno which cd this song is from but it really doesnt matter. this is a 
good song.

x2                           strumming not defined
------------|------------|--------------------------|
------------|------------|--------------------------|
------------|------------|--------------------------|
--6---------|--6---------|--6-----------------6-----|
--4--6--4---|--4--6--4---|--4--6--8--4--4--6--4-----|
-----4--2---|-----4--2---|-----4--6--2--2--4--------|

x2    strumming not defined
-----------------|
-----------------|
--------6--5-----|
--------4--3-----|
--8--4-------6---|
--6--2-------4---|

------------|------------|--------------------------|-----|
------------|------------|--------------------------|-----|
------------|------------|--------------------------|--6--|
--6---------|--6---------|--6-----------------------|--x--|
--4--6--4---|--4--6--4---|--4--6--8--4--4--6--4-----|--4--|
-----4--2---|-----4--2---|-----4--6--2--2--4--2-----|-----|

x2 (second time, palm mute)
------------|------------|--------------------------|
------------|------------|--------------------------|
------------|------------|--------------------------|
--6---------|--6---------|--6-----------------6-----|
--4--6--4---|--4--6--4---|--4--6--8--4--4--6--4-----|
-----4--2---|-----4--2---|-----4--6--2--2--4--------|

------------------|
------------------|
--------6--5------|
--------4--3------|
--8--4-------6----|
--6--2-------4----|

------------|------------|--------------------------|-----|
------------|------------|--------------------------|-----|
------------|------------|--------------------------|--6--|
--6---------|--6---------|--6-----------------------|--x--|
--4--6--4---|--4--6--4---|--4--6--8--4--4--6--4-----|--4--|
-----4--2---|-----4--2---|-----4--6--2--2--4--2-----|-----|

--------------|
--------------|
--------------|
-----------6--|
--8--4--6--4--|
--6--2--4-----|


solo
(x2)
------------------------------------|--------------------|------|
---------------------9---7-6--------|-999-77777-666-7-6--|------|
--10h11-11-11-10-8-6---6-----8-6----|--------------------|-10-8-|
------------------------------------|--------------------|------|
------------------------------------|--------------------|------|
------------------------------------|--------------------|------|

-----------------------|
-----------------------|
-----------------------|
-----------------------|
--5-666-4-44-5-666-4---|
-----------------------|

------------------------------------|--------------------|------|
---------------------9---7-6--------|-999-77777-666-7-6--|------|
--10h11-11-11-10-8-6---6-----8-6----|--------------------|-10-8-|
------------------------------------|--------------------|------|
------------------------------------|--------------------|------|
------------------------------------|--------------------|------|

------------|------------|--------------------------|
------------|------------|--------------------------|
------------|------------|--------------------------|
--6---------|--6---------|--6-----------------6-----|
--4--6--4---|--4--6--4---|--4--6--8--4--4--6--4-----|
-----4--2---|-----4--2---|-----4--6--2--2--4--------|

-----------------|
-----------------|
--------6--5-----|
--------4--3-----|
--8--4-------6---|
--6--2-------4---|

------------|------------|--------------------------|
------------|------------|--------------------------|
------------|------------|--------------------------|
--6---------|--6---------|--6-----------------------|
--4--6--4---|--4--6--4---|--4--6--8--4--4--6--4-----|
-----4--2---|-----4--2---|-----4--6--2--2--4--2-----|

play til the end of the song
-----
-----
--6--
--x--
--4--
-----
Página 1 / 1

Letras e título
Acordes e artista

resetar configurações
OK