Cifra Club

Aprenda

Classy Girl

The Lumineers

Cifra: Principal (violão e guitarra)
tom: C (forma dos acordes no tom de A) Capotraste na 3ª casa
   A
|--------------------------------------|
|-------2-------------------2----------|
|---2-----------2--2--2----------2---2-|
|--------------------------------------|
|-0---0-----------0--0--0----------0---|
|--------------------------------------|

   D
|---------2------------------2---------|
|---3------------3--3--3---------3---3-|
|--------------------------------------|
|-0---0-----------0--0--0----------0---|
|--------------------------------------|
|--------------------------------------|

   E               D
|---------0------------------2---------|
|----------------------3---------3---3-|
|---1-----------1--1-------------------|
|--------------------0---0---------0---|
|-2---2-----------2--------------------|
|--------------------------------------|

   A
|--------------------------------------|
|-------2-------------------2----------|
|---2-----------2--2--2----------2---2-|
|--------------------------------------|
|-0---0-----------0--0--0----------0---|
|--------------------------------------|

intro and verse are just that repeated.

     A                A
Welllll, she was standing in the bar
     D              D
I said, "Hello, how do you do?"
    E           D                  A  A
She handed me a beer with a kangaroo


     A              A            D
She spoke of places I had never been
              D
That she had traveled to
    E                D                  A   A
And we slowed danced along to faster tunes


  A                                A                          D
I made her laugh, I made a pass, I showed her my half dollar ring
                          D
She said, "That's pretty cool,
    E                   D                  A    A
But classy girls don't kiss in bars, you fool"


Interlude(Picking ends here and strumming starts):
A A D D E D A

   A            A
So later on the crowd calmed down
    D            D
And I believe it was as if
  E                D              A   A
Something drew me closer to her lips


   A            A                 D                D
So picture my surprise when I had tried to lean in for a kiss
    E                   D                    A   A
And she just smiled and turned her head down


   A
I asked her, "Why?" and she replied,
 A                          D                        D
"It was nothing I was doing wrong, its just what it is"
      E                  D                A   A
No, classy girls don't kiss in bars like this


    D                  E
No, classy girls don't kiss in bars
    D                  E
Boys will break their backs and hearts
    D                 E                  A D  E  E
But its alright, the hardest part is through


               A D  E  E
Oh it's through
               A D  E  E
Oh it's through
               A D  E  E
Oh it's through
                      A
The hardest part is through.

Thanks
Composição de Jeremy Fraites / Wesley Keith Schultz
Colaboração e revisão:
  • luana oliveira
8.896 exibições
    • ½ Tom
    • A
    • Bb
    • B
    • C
    • Db
    • D
    • Eb
    • E
    • F
    • F#
    • G
    • Ab
  • Adicionar à lista

    0 comentários

    Ver todos os comentários

    Conseguiu tocar?

    5 Tocaram 0 Ainda não

    Grave um vídeo tocando Classy Girl e nos envie!

    00:00 / 00:00
    Outros vídeos desta música
    Repetir Qualidade Automático
    Outros vídeos desta música
    00:00 / 00:00
    Automático

    Cifra Club Pro

    Aproveite o Cifra Club com benefícios exclusivos e sem anúncios
    Cifra Club Pro
    Aproveite o Cifra Club com benefícios exclusivos e sem anúncios
    OK