Cifra Club

Aprenda

Dawn Is a Feeling

The Moody Blues

Tab de baixo: Principal
    Orchestra         0:38                                                      
G---|-----------------||------------------|-----------------|-------------------
D---|-----------------||*-----------------|-----------------|-------------------
A---|-----------------||*--3--------------|--2--------------|--1----------------
E---|-----------------||------------------|-----------------|-------------------
                                                                                
G---|--------------------|-----------------|-----------------|------------------
D---|--------------------|-----------------|-----------------|------------------
A---|-----------4--------|-----------------|--3--------------|------------------
E---|--4-----------------|--3--------------|-----------------|--3---------------

                                                    1:53                        
G------|--------------------------|------------------||--------------------|----
D------|--------------------------|-----------------*||--------------------|----
A------|--3-----------3--1--------|-----------------*||--8-----8--7-----7--|----
E------|--------------------4-----|--3---------------||--------------------|----
                                                                                
G---------------------|--------------------|-----------------|------------------
D---------------------|--------------------|-----------------|------------------
A---6--6--6--6--6--6--|--6--6--6--6--6--6--|--5--------------|------------------
E---------------------|--------------------|-----------------|--3---------------
                                                                                
G------|--------------------|--------------------|--------------------|---------
D------|--------------------|--------------------|--------------------|---------
A------|--3-----3--1--------|--------------------|--3-----3--1--------|---------
E------|-----3--------------|--1--------3--------|-----3--------------|--1------

                   2:13                                                         
G------------------|-----------------|-----------------|-----------------|------
D------------------|-----------------|-----------------|-----------------|------
A------------------|--3--------------|--2--------------|--1--------------|------
E---------3--------|-----------------|-----------------|-----------------|------
                                                                                
G---------------------|-----------------|-----------------|---------------------
D---------------------|-----------------|-----------------|---------------------
A------------4--------|-----------------|--3--------------|---------------------
E---4-----------------|--3--------------|-----------------|--3------------------
                                                                                
G---|--------------------------|-----------------||-----------------------------
D---|--------------------------|-----------------||-----------------------------
A---|--3-----------3--1--------|-----------------||-----------------------------
E---|--------------------4-----|--3--------------||-----------------------------
Composição de Michael Pinder
Colaboração e revisão:
  • Élison Duarte
156 exibições

0 comentários

Mostrar mais comentários

Conseguiu tocar?

0 Tocaram 0 Ainda não

Grave um vídeo tocando Dawn Is a Feeling e mande pra gente!

00:00 / 00:00
outros vídeos desta música
repetir qualidade Automático
Outros vídeos desta música
00:00 / 00:00
Automático

Cifra Club Pro

Aproveite o Cifra Club com benefícios exclusivos e sem anúncios
7 dias grátis
Cifra Club Pro
Aproveite o Cifra Club com benefícios exclusivos e sem anúncios
7 dias grátis
OK