Cifra Club

English Sunset

The Moody Blues

Cifra: Principal (violão e guitarra)
Tom: D
(intro 4x)

  (A)                            (F)                   (G)
----------------------0-------------------------------------------|
------2--0-------2-3-----0-------1-0-1-0--------------------------|
----2------------------------------------2------------------------|
--2---------------------------------------------------------------|
------------------------------------------------------------------|
------------------------------------------------------------------|

(verse 1)
A                        F                            G G
I wanna ride the range across those skies of black
A                          F
I wanna see for myself and see me comin? back
G                                F                            G      (intro 2x)
And when I?ve gone the distance, I?ll be making tracks for an English Sunset.

(verse 2)
A                        F                         G G
We?re on a runaway train rollin? down the track
A                            F
And where it?s takin? us to, who knows where it?s at
G                        F                          G       (intro 2x)
But if we hold together, we can make it back for an English Sunset.

(*At the end of the second verse, the second intro is played like this*)

---------------------------------0------------------------------------|
------------------2--0-------2-3-----0-------3-3-3-3-3-3-3-2----------|
---------------2------------------------------------------------------|
------------2---------------------------------------------------------|
----------------------------------------------------------------------|
----------------------------------------------------------------------|

(break)
                         D                           G
I feel the rhythm of the earth in my soul tonight,
G cont.                     F#m                  G            A
May it never fade away.
                       D                                 F           G
And I?ve decided I can live with humility,              (Ahhhhhhhhh  Ahhhhhhhh)
G cont.                            F             G
And the sad decay                 (Ahhhhhhhhhhhh Ahhhhhhhhhh)
G cont.                   (intro 2x)
?Cause that?s the English way.
exibições 172
Acordes para:
    Composição: Justin Hayward Colaboração e revisão:
    • Élison Duarte

    0 comentários

    mostrar mais comentários

    Conseguiu tocar?

    0 tocaram 0 ainda não

    Grave um vídeo tocando English Sunset e mande pra gente!

    00:00 / 00:00
    outros vídeos desta música
    repetir qualidade Automático
    Outros vídeos desta música
    00:00 / 00:00
    Automático
    OK