Cifra Club

Aprenda

I Know Youre Out There Somewhere

The Moody Blues

Cifra: Principal (violão e guitarra)
Tom: G
(intro)

   G                   C
E|--------------------------------------|
B|-------------10--8---8-8---8----------|
G|-------4--7--------------9----9--7--5-|  2x
D|---5-7--------------------------------|
A|-7------------------------------------|
E|--------------------------------------|

     G                                    C
 The mist is lift-ing slow-ly.      I can see the way a-head.
E|----------------------------------------------------------------|
B|-----------------------------10--8---------------8--------------|
G|----------------4----7-------------------------------9------7-5-| (#)
D|----------------------------------------------------------------|
A|----------------------------------------------------------------|
E|----------------------------------------------------------------|

 C        G
 And I've left be-hind the emp-ty streets,
E|-----------------------------------------|
B|---------------------------------10----8-| (#)
G|-----------------4----7------------------|
D|-----------------------------------------|
A|-----------------------------------------|
E|-----------------------------------------|

              C
 that once in-spired my life.
E|----------------------------10-8-|
B|------------------8--------------|
G|-------------9-------------------|
D|---------------------------------|
A|---------------------------------|
E|---------------------------------|

C       G                                  C
And the strength of the e-mo-tion, is like thund-er in the air.
           G                                  C
'Cause the pro-mise that we made each oth-er, haunts me to the end.

(refrão)
  Em                    C           Bm          D
I know you're out there some-where, some-where, some-where.
  Em                    C                                  D
I know you're out there some-where, and some-where you can hear my voice.
  Em                 C         Bm        D
I know I'll find you some-how, some-how, some-how.
  Em                 C                              D              C
I know I'll find you some-how, and some-how I'll re-turn a-gain to you.

   G                   C
E|--------------------------------------|
B|-------------10--8---8-8---8----------|
G|-------4--7--------------9----9--7--5-|    2x
D|---5-7--------------------------------|
A|-7------------------------------------|
E|--------------------------------------|

    G                                C
The se-cret of your beaut-y, and the mys-t'ry of your soul.
          G                                C
I've been search-ing for it in ev'ry-one I meet.
        G                           C
And the times I've mis-tak-en, it's im-pos-si-ble to say.
        G                                  C
And the grass is grow-ing un-der-neath our feet.

(refrão 2)
...............................you.
E|----------------------------------------------------------|
B|----------------------------------------------------------|
G|-------------------------------------------7--------------|
D|----------------------------------------------5vvvvvvvvvv-|
A|------------------------------7vvvvvvvvvv-----------------|
E|----------------------------------------------------------|

E|-----------------------------5--5h7p5--7-5-------10vvvv-|
B|-10\12-8h10p8h10-8p5h8p5h8-----------------5--8---------|
G|---------------------------7----------------------------|
D|--------------------------------------------------------|
A|--------------------------------------------------------|
E|--------------------------------------------------------|

             C                     D            C    D
  You see, I know you're out there some-where.
E|---------------------------------------------|
B|---------------------------------------------|
G|-----------------0------0---0-----2----0-----|
D|-2---0----0-2--------------------------------|
A|---------------------------------------------|
E|---------------------------------------------|

            C                     D          C  D   C/D Em7
  Oh yes, I know you're out there some-where.
E|-------------------------------------------------------10vvvv-|
B|--------------------------------------------8------8----------|
G|----------------0------4---0-----2----0--------11-------------|
D|-2--0----0-2--------------------------------------------------|
A|--------------------------------------------------------------|
E|--------------------------------------------------------------|

   C      D   C      D   C      D   C      D
E|--------------------------------------------------12vvv10vvvv-|
B|-----------------------------------------------8--------------|
G|-------------------------------------------9------------------|
D|--------------------------------------------------------------|
A|--------------------------------------------------------------|
E|--------------------------------------------------------------|

           C                  D         C    D
You see, I know I'll find you some-how.
          C                  D          C      D
Oh yes, I know I'll find you some-how.
E|---------------------------------------------------------------|
B|--------------------------------------------------10-8-7-8-7---|
G|-------------------------------------------------------------9-|
D|---------------------------------------------------------------|
A|---------------------------------------------------------------|
E|---------------------------------------------------------------|

   C        D        C(3rd fr)Bm7      G
E|---------------------------------------|
B|-------------------5vvvvvv--7vvvvvv----|
G|-5vvvvvv--7vvvvvv----------------------|
D|----------0--------2--------4----------|  Bass notes.
A|-3-------------------------------------|
E|---------------------------------------|

   G                   C
E|--------------------------------------|
B|-------------10--8---8-8---8----------|
G|-------4--7--------------9----9--7--5-|    2x
D|---5-7--------------------------------|
A|-7------------------------------------|
E|--------------------------------------|

    G                               C
The words that I re-mem-ber from my child-hood still are true.
                    G                                   C
That's there're are none so blind as those who will not see-e.
       G
And to those who lack the cour-age,
             C
and say it's dan-ger-ous to try.
           G                                    C
Well, they just don't know that love e-ter-nal, will not be de-nied.

(refrão 3)

   G                   C
E|--------------------------------------|
B|-------------10--8---8-8---8----------|
G|-------4--7--------------9----9--7--5-|   2x
D|---5-7--------------------------------|
A|-7------------------------------------|
E|--------------------------------------|

       G                                   C
Yes, I know it's gon-na hap-pen.     I can feel you get-ting near.
                        (know it's gon-na hap-pen.)
(Feel you get-ting near.)
                   G                               C
                It seemed to be re-turn-ing to the foun-tain
of our youth.
    G                                                   C
And if you wake up won-der-ing.                  In the dark-ness
                          (If you wake up won-der-ing.)
                               G
I'll be there.              My arms will close a-round you
             (You know I'll be there.)
        C
And pro-tect you with the truth.

(refrão 4)

  Slower             G
E|--------------------|
B|-------------10--8--|
G|-------4--7---------|
D|---5-7--------------|  R&F
A|-7------------------|
E|--------------------|
Composição de Justin Hayward
Colaboração e revisão:
  • Élison Duarte
331 exibições
    • ½ Tom
    • A
    • Bb
    • B
    • C
    • Db
    • D
    • Eb
    • E
    • F
    • F#
    • G
    • Ab
  • Adicionar à lista

    0 comentários

    Mostrar mais comentários

    Conseguiu tocar?

    0 Tocaram 0 Ainda não

    Grave um vídeo tocando I Know Youre Out There Somewhere e mande pra gente!

    00:00 / 00:00
    outros vídeos desta música
    repetir qualidade Automático
    Outros vídeos desta música
    00:00 / 00:00
    Automático

    Cifra Club Pro

    Aproveite o Cifra Club com benefícios exclusivos e sem anúncios
    7 dias grátis
    Cifra Club Pro
    Aproveite o Cifra Club com benefícios exclusivos e sem anúncios
    7 dias grátis
    OK