Cifra Club

Aprenda

Nights in White Satin

The Moody Blues

Tab de baixo: Principal
(intro - rest)

(verses 1 & 2)
|---|-------|---9---|-------|-------|--------|-------|
|---|-------|-----9-|-0-----|-------|*-------|-------|
|---|-7-----|-------|-------|-----0-|*-7-----|-------|
|-5-|-------|-------|-------|-------|--------|-------|
  3   1 2 3   1 2 3   1 2 3   1 2 3    1 2 3   1 2 3

|-------|-------|-------|-------|-------|-------|-------|
|-------|-------|-------|-------|-------|-------|-------|
|-5-----|-----0-|-7-----|-------|-5-----|-----5-|-3-----|
|-------|-------|-------|-------|-------|-------|-------|
  1 2 3   1 2 3   1 2 3   1 2 3   1 2 3   1 2 3   1 2 3

                                                    (x2)
|-------|-------|-------|------|-------|-------|--------|
|-------|-------|-------|------|-------|-------|-------*|
|-------|-------|-------|------|-------|-------|-------*|
|-------|-3-----|-----3-|-1----|-----1-|-0-----|--------|
  1 2 3   1 2 3   1 2 3   1 2 3  1 2 3   1 2 3   1 2 3

(chorus)
|-------|-------|-------|-------|-------|-------|-------|
|-------|-------|-------|-------|-------|-------|-------|
|-------|-------|-------|-------|-------|-------|-------|
|-5-----|-5-----|-5-----|-5-5-7-|-8-----|-8-----|-8-----|
  1 2 3   1 2 3   1 2 3   1 2 3   1 2 3   1 2 3   1 2 3

|-------|-------|-------|-------|-------|-------|-------|
|-------|-------|-------|-------|-------|-------|-------|
|-------|-7-7-7-|-7-7-7-|-5-5-5-|-5-5-5-|-7-7-7-|-7-7-7-|
|-8-----|-------|-------|-------|-------|-------|-------|
  1 2 3   1 2 3   1 2 3   1 2 3   1 2 3   1 2 3   1 2 3

|-------|-------|
|-------|-------|
|-5-5-5-|-5-5-5-|
|-------|-------|
  1 2 3   1 2 3

(instrumental)
|-------|-9-----|-------|-------|-------|-------|-------|
|-------|---9---|-------|-------|-------|-------|-------|
|-7-----|-----9-|-7-----|-------|-rest--|-rest--|-rest--|
|-------|-------|-------|-------|-------|-------|-------|
  1 2 3   1 2 3   1 2 3   1 2 3   1 2 3   1 2 3   1 2 3

|-------|-------|-------|-------|-------------|-------|---9---|
|-------|-------|-------|-------|-------------|-------|-----9-|
|-rest--|-rest--|-rest--|-rest--|-------------|-7-----|-------|
|-------|-------|-------|-------|-5/7-5/7-5/7-|-------|-------|
  1 2 3   1 2 3   1 2 3   1 2 3    1   2   3    1 2 3   1 2 3

|-------|-------|-------|-------|-------|-------|-------|
|-0-----|-------|-------|-------|-------|-------|-------|
|-------|---5-4-|-3-----|-----3-|-2-----|-------|-7-----|
|-------|-------|-------|---3---|-------|---7-7-|-------|
  1 2 3   1 2 3   1 2 3   1 2 3   1 2 3   1 2 3   1 2 3
|-------|-------|-------|-------|-------|-------|-------|
|-------|-------|-------|-------|-------|-------|-------|
|---7---|-------|-------|-7-----|---7---|-------|-------|
|-----7-|-8-----|---7-8-|-------|-----7-|-8-----|---8-7-|
  1 2 3   1 2 3   1 2 3   1 2 3   1 2 3   1 2 3   1 2 3

|-------|-------|-------|-------|-------|-------|-------|
|-------|-------|-------|-------|-------|-------|-------|
|-------|-------|-------|-------|-------|-------|-------|
|-5-----|---5-6-|-7-----|---7-7-|-5-5-5-|-5-5-5-|-7-7-7-|
  1 2 3   1 2 3   1 2 3   1 2 3   1 2 3   1 2 3   1 2 3

|-------|-------|-------|-------|-------|-------|-------|
|-------|-------|-------|-------|-------|-------|-------|
|-------|-7-7-7-|-7-7-7-|-5-5-5-|-5-5-5-|-------|-------|
|-7-7-7-|-------|-------|-------|-------|-8-8-8-|-8-8-8-|
  1 2 3   1 2 3   1 2 3   1 2 3   1 2 3   1 2 3   1 2 3

|-------|-------|-------|-------|-------|-------|-------|
|-------|-------|-------|-------|-------|-------|-------|
|-7-7-7-|-7-7-7-|-5-5-5-|-5-5-5-|-7-7-7-|-7-7-7-|-5-5-5-|
|-------|-------|-------|-------|-------|-------|-------|
  1 2 3   1 2 3   1 2 3   1 2 3   1 2 3   1 2 3   1 2 3

|-------|
|-------|
|-5-5-5-|
|-------|
  1 2 3

(verse 3)
|-------|-------|-------|-------|-------|-------|-------|
|-------|-------|-------|-------|-------|-------|-------|
|-7-----|-------|-5-----|-------|-7-----|-------|-5-----|
|-------|-------|-------|-------|-------|-------|-------|
  1 2 3   1 2 3   1 2 3   1 2 3   1 2 3   1 2 3   1 2 3

|-------|-------|-------|-------|-------|-------|-------|
|-------|-------|-------|-------|-------|-------|-------|
|-----5-|-3-----|-----3-|-------|-------|-------|-------|
|-------|-------|-------|-3-----|-----3-|-1-----|-----1-|
  1 2 3   1 2 3   1 2 3   1 2 3   1 2 3   1 2 3   1 2 3

|-------|-------|-------|-------|-------|-------|-------|
|-------|-------|-------|-------|-------|-------|-------|
|-------|-------|-7-7-7-|-7-7-7-|-5-5-5-|-5-5-5-|-7-7-7-|
|-0-----|-------|-------|-------|-------|-------|-------|
  1 2 3   1 2 3   1 2 3   1 2 3   1 2 3   1 2 3   1 2 3

|-------|-------|-------|-------|-------|-------|-------|
|-------|-------|-------|-------|-------|-------|-------|
|-7-7-7-|-5-5-5-|-5-5-5-|-3-3-3-|-3-3-3-|-------|-------|
|-------|-------|-------|-------|-------|-3-3-3-|-3-3-3-|
  1 2 3   1 2 3   1 2 3   1 2 3   1 2 3   1 2 3   1 2 3

|-------|-------|-------|-------|
|-------|-------|-------|-------|
|-------|-------|-------|-------|
|-1-1-1-|-1-1-1-|-0-0-0-|-0-0-0-|
  1 2 3   1 2 3   1 2 3   1 2 3

End(after 3rd chorus))
|-------|-------|-------|-------|-------|-------|-------|
|-------|-------|-------|-------|-------|-------|-------|
|-------|-------|-------|-------|-------|-------|-------|
|-0---0-|-0---0-|-0---0-|-0---0-|-5-----|-5-----|-5-----|
  1 2 3   1 2 3   1 2 3   1 2 3   1 2 3   1 2 3   1 2 3

|-------|-------|-------|-------|-------|-------|-------|
|-------|-------|-------|-------|-------|-------|-------|
|-------|-------|-------|-------|-------|-7-7-7-|-7-7-7-|
|-5-5-7-|-8-8-8-|-8-8-8-|-8-8-8-|-8-8-8-|-------|-------|
  1 2 3   1 2 3   1 2 3   1 2 3   1 2 3   1 2 3   1 2 3

|-------|-------|-------|-------|-------|-------|-------|
|-------|-------|-------|-------|-------|-------|-------|
|-5-5-5-|-5-5-5-|-7-7-7-|-7-7-7-|-5-5-5-|-5-5-5-|-7-----|
|-------|-------|-------|-------|-------|-------|-------|
  1 2 3   1 2 3   1 2 3   1 2 3   1 2 3   1 2 3   1 2 3
Composição de Justin Hayward
Colaboração e revisão:
  • Élison Duarte
256 exibições

0 comentários

Mostrar mais comentários

Conseguiu tocar?

0 Tocaram 0 Ainda não

Grave um vídeo tocando Nights in White Satin e mande pra gente!

00:00 / 00:00
outros vídeos desta música
repetir qualidade Automático
Outros vídeos desta música
00:00 / 00:00
Automático

Cifra Club Pro

Aproveite o Cifra Club com benefícios exclusivos e sem anúncios
7 dias grátis
Cifra Club Pro
Aproveite o Cifra Club com benefícios exclusivos e sem anúncios
7 dias grátis
OK