Cifra Club

Aprenda

Your Wildest Dreams

The Moody Blues

Tab de baixo: Principal
    keyboards         drums enter       0:32                                    
g---|-----------------|-----------------||------------------|-------------------
d---|-----------------|-----------------||*-----------------|-------------------
a---|-----------------|-----------------||*--------------2--|--3----------------
e---|-----------------|-----------------||---3--------------|--------------3----

                                                  2x                            
g---|-----------------------|---------------------||-----------------|----------
d---|-----2--5--------------|--------------------*||-----------------|----------
a---|--3--------2--3-----3--|--5--------2--5-----*||--------------2--|--3-------
e---|-----------------------|--------5--------2---||--3--------------|----------

                                                          0:59                  
g------------|-----------------------|--------------------|---------------------
d------------|-----2--5--------------|-----------------2--|--3-----------3------
a------------|--3--------2--3-----3--|--5--------2--5-----|---------------------
e---------3--|-----------------------|--------5-----------|---------------------
                                                                               
g---|-----------------------|-----------------|--------------------|------------
d---|--2--------------------|-----------------|-----------2--5-----|------------
a---|--------5--3-----------|-----------------|--3-----3-----------|------------
e---|-----------------3--2--|--1-----------3--|-----------------0--|--3---------
                                                                                
g------------------|-----------------------|-----------------||-----------------
d------------5-----|--------------2--5-----|-----------------||*----------------
a------2--5-----5--|--3--------3--------3--|--5--------------||*----------------
e---3--------------|--------3--------------|-----------------||---3-------------

                                                                       2x       
g------|-----------------|-----------------------|---------------------||-------
d------|-----------------|-----2--5--------------|--------------------*||-------
a---2--|--3--------------|--3--------2--3-----3--|--5--------2--5-----*||-------
e------|--------------3--|-----------------------|--------5--------2---||--3----
                                                                                
g---------------|-----------------|-----------------------|---------------------
d---------------|-----------------|-----2--5--------------|---------------------
a------------2--|--3--------------|--3--------2--3-----3--|--5--------3--5------
e---------------|--------------3--|-----------------------|--------5------------
                                                                                
      1:31                                                                     
g------|-----------------|-----------------------|-----------------|------------
d---2--|--3-----------3--|--2--------------------|-----------------|------------
a------|-----------------|--------5--3-----------|-----------------|--3---------
e------|-----------------|-----------------3--2--|--1-----------3--|------------
                                                                                
g---------------|-----------------------|-----------------------|---------------
d------2--5-----|-----------------5-----|--------------2--5-----|---------------
a---3-----------|-----------2--5-----5--|--3--------3--------3--|--5------------
e------------0--|--3-----3--------------|--------3--------------|---------------

                                                   1:47                        
g------|-----------------------|--------------------||--------------------------
d------|-----------------5-----|--------------------||*-------------------------
a------|-----------2--5-----5--|--3--2--------------||*-----------------2-------
e------|--3-----3--------------|--------5--3--------||---3-----3--5-------------
                                                                                
g------------|-----------------|-----------------------------|------------------
d------------|-----------------|-----------------2-----------|------------------
a---3--------|--3--------------|--3-----3--5-----------5-----|--3-----2---------
e---------3--|--------------3--|-----------------------------|------------------
                                                                                
g-------------||--------------------|-----------------------|-------------------
d------------*||-----------5--------|-----------------------|-------------------
a------------*||--------------------|--5--------------5-----|--5-----5--3--2----
e---3---------||--3-----3--------3--|-----------5-----------|-------------------
                                                                                
g------------|-----------------|-----------------|-----------------------|------
d------------|-----------------|-----------------|-----2--5--------------|------
a------5-----|--------------2--|--3--------------|--3--------2--3-----3--|------
e---5--------|--3--------------|--------------3--|-----------------------|------
                                                                               
g---------------------|-----------------|-----------------|---------------------
d---------------------|-----------------|-----------------|-----2--5------------
a---5--------2--5-----|--------------2--|--3--------------|--3--------2--3------
e---------5--------2--|--3--------------|--------------3--|---------------------

                               2:19                                             
g---------|--------------------|-----------------|-----------------------|------
d---------|-----------------2--|--3-----------3--|--2--------------------|------
a------3--|--5--------2--5-----|-----------------|--------5--3-----------|------
e---------|--------5-----------|-----------------|-----------------3--2--|------
                                                                                
g------------------|--------------------|-----------------------|---------------
d------------------|-----------2--5-----|-----------------5-----|---------------
a------------------|--3-----3-----------|-----------2--5-----5--|--3------------
e---1-----------3--|-----------------0--|--3-----3--------------|--------3------
                                                                               
g---------------|--------------||------------------|-----------------|----------
d------2--5-----|--------------||*-----------------|-----------------|-----2----
a---3--------3--|--5-----------||*--------------2--|--3--------------|--3-------
e---------------|--------------||---3--------------|--------------3--|----------
                                                                                
g------------------|---------------------||-----------------|-------------------
d---5--------------|--------------------*||-----------------|-------------------
a------2--3-----3--|--5--------2--5-----*||--------------2--|--3----------------
e------------------|--------5--------2---||--3--------------|--------------3----
                                                                                
g---|-----------------------|--------------------|-----------------|------------
d---|-----2--5--------------|-----------------2--|--3-----------3--|--2---------
a---|--3--------2--3-----3--|--5--------2--5-----|-----------------|------------
e---|-----------------------|--------5-----------|-----------------|------------
                                                                                
g------------------|-----------------|--------------------|---------------------
d------------------|-----------------|-----------2--5-----|---------------------
a---5--3-----------|-----------------|--3-----3-----------|-----------2--5------
e------------3--2--|--1-----------3--|-----------------0--|--3-----3------------
                                                                                
g---------|-----------------------|-----------------------|---------------------
d---5-----|--------------2--5-----|--------------4--7--4--|--5------------------
a------5--|--3--------3--------3--|--5--------5-----------|-----------2--5------
e---------|--------3--------------|--------5--------------|--------3------------

                               3:06                                             
g---------|--------------------|--------------------------------|---------------
d---5-----|--------------------|--------------------------------|---------------
a------5--|--3--2--------------|-----------------2-----3--------|--3------------
e---------|--------5--3--------|--3-----3--5-----------------3--|---------------
                                                                                
g---------|-----------------------------|--------------------|------------------
d---------|-----------------2-----------|--------------------|------------------
a---------|--3-----3--5-----------5-----|--3-----2-----------|------------------
e------3--|-----------------------------|--------------3-----|--3-----3--5------
                                                                                
g------------------|--s----s----------------|-----------------------------|-----
d------------------|--4h5--2p0--s--s--------|-----------------2-----------|-----
a------2-----3-----|------------3--3--s-----|--3-----3--5-----------5-----|-----
e------------------|------------------3-----|-----------------------------|-----
                                                                                
g---------------------|--------------------------------|-----------------|------
d---------------------|--------------------------------|-----------------|------
a---3-----2-----------|-----------------2-----3--------|--3--------------|------
e---------------3-----|--3-----3--5-----------------3--|--------------3--|------
                                                                                
g------------------------------|--------------------|--------------------|------
d------------------2-----------|--------------------|-----------5--------|------
a---3-----3--5-----------5-----|--3-----2-----------|--------------------|------
e------------------------------|--------------3-----|--3-----3--------3--|------

                                                    3:32                        
g------------------------|--------------------------|-----------------|---------
d------------------------|--------------------------|-----------------|---------
a---5--------------5-----|--5-----5--3--2-----5-----|--------------2--|--3------
e------------5-----------|-----------------5--------|--3--------------|---------
                                                                                
g---------------|-----------------------|--------------------|------------------
d---------------|-----2--5--------------|--------------------|------------------
a---------------|--3--------2--3-----3--|--5--------2--5-----|------------------
e------------3--|-----------------------|--------5--------2--|--3---------------
                                                                                
g------|-----------------|-----------------------|--------------------|---------
d------|-----------------|-----2--5--------------|-----------------2--|--3------
a---2--|--3--------------|--3--------2--3-----3--|--5--------2--5-----|---------
e------|--------------3--|-----------------------|--------5-----------|---------
                                                                               
g---------------|-----------------------|-----------------|---------------------
d------------3--|--2--------------------|-----------------|-----------2--5------
a---------------|--------5--3-----------|-----------------|--3-----3------------
e---------------|-----------------3--2--|--1-----------3--|---------------------
                                                                                
                                                                     3:57      
g------|-----------------------|-----------------------|--------------||--------
d------|-----------------5-----|--------------2--5-----|--------------||*-------
a------|-----------2--5-----5--|--3--------3--------3--|--5-----------||*-------
e---0--|--3-----3--------------|--------3--------------|--------------||---3----
                                                                                
g---------------|-----------------|-----------------------|---------------------
d---------------|-----------------|-----2--5--------------|---------------------
a------------2--|--3--------------|--3--------2--3-----3--|--5--------2--5------
e---------------|--------------3--|-----------------------|--------5------------
                                                                                
      repeat and fade                                                          
g-------||----------------------------------------------------------------------
d------*||----------------------------------------------------------------------
a------*||----------------------------------------------------------------------
e---2---||----------------------------------------------------------------------
Composição de Justin Hayward
Colaboração e revisão:
  • Élison Duarte
58 exibições

0 comentários

Mostrar mais comentários

Conseguiu tocar?

0 Tocaram 0 Ainda não

Grave um vídeo tocando Your Wildest Dreams e mande pra gente!

00:00 / 00:00
outros vídeos desta música
repetir qualidade Automático
Outros vídeos desta música
00:00 / 00:00
Automático

Cifra Club Pro

Aproveite o Cifra Club com benefícios exclusivos e sem anúncios
7 dias grátis
Cifra Club Pro
Aproveite o Cifra Club com benefícios exclusivos e sem anúncios
7 dias grátis
OK