Cifra Club

Aprenda

The Secret Path

The Moon and the Nightspirit

Cifra: Principal (violão e guitarra)
Tom: G
E|-------------------------------------------------------------------------------------------------|
B|-----8-0---------------------0-------------------8-0---------------------0-----------------------|
G|---------------------------5-------------------------------------------5-------------------------|
D|---7---------------------2---------------------7---------------------2---------------------------|
A|-8---------------------0---------------------8---------------------0-----------------------------|
E|-------------------------------------------------------------------------------------------------|

E|-------------------------------------------------------------------------------------------------|
B|-----8-0---8---------8-0---8-----------------0---------------0-----------------------------------|
G|---------0---0-----------0---0---5-----5---------5-----5-----------------------------------------|
D|---7-----------7---7-----------7---2-----2-----2---2-----2-----2---------------------------------|
A|-8---------------8-------------------0-----0---------0-----0-------------------------------------|
E|-------------------------------------------------------------------------------------------------|


E|-------------------------------------------------------------------------------------------------|
B|-----8-0---8---------8-0---8-----------------0---------------0-----------------------------------|
G|---------0---0-----------0---0---5-----5---------5-----5-----------------------------------------|
D|---7-----------7---7-----------7---2-----2-----2---2-----2-----2---------------------------------|
A|-8---------------8-------------------0-----0---------0-----0-------------------------------------|
E|-------------------------------------------------------------------------------------------------|

E|-------------------------------------------------------------------------------------------------|
B|-----8-0---8---------8-0---8-----------------0---------------0-----------------------------------|
G|---------0---0-----------0---0---5-----5---------5-----5-----------------------------------------|
D|---7-----------7---7-----------7---2-----2-----2---2-----2-----2---------------------------------|
A|-8---------------8-------------------0-----0---------0-----0-------------------------------------|
E|-------------------------------------------------------------------------------------------------|

E|-------------------------------------------------------------------------------------------------|
B|-----8-0---8---------8-0---8-----------------0---------------0-----------------------------------|
G|---------0---0-----------0---0---5-----5---------5-----5-----------------------------------------|
D|---7-----------7---7-----------7---2-----2-----2---2-----2-----2---------------------------------|
A|-8---------------8-------------------0-----0---------0-----0-------------------------------------|
E|-------------------------------------------------------------------------------------------------|


E|-0---0-0---0-0-0---0---0-0---0-0-0---------------------------------------------------------------|
B|-1---1-1---1-1-0---1---1-1---1-1-0---------------------------------------------------------------|
G|-2---2-2---2-2-0---2---2-2---2-2-0---------------------------------------------------------------|
D|-3---3-3---3-3-0---3---3-3---3-3-0---------------------------------------------------------------|
A|-------------------------------------------------------------------------------------------------|
E|-------------------------------------------------------------------------------------------------|


E|-------------------------------------------------------------------------------------------------|
B|-1---1-1---1-1-0---3---3-3---3-3-0---------------------------------------------------------------|
G|-2---2-2---2-2-0---2---2-2---2-2-0---------------------------------------------------------------|
D|-2---2-2---2-2-0---2---2-2---2-2-0---------------------------------------------------------------|
A|-0---0-0---0-0-0---0---0-0---0-0-0---------------------------------------------------------------|
E|-------------------------------------------------------------------------------------------------|

E|-0---0-0---0-0-0---0---0-0---0-0-0---------------------------------------------------------------|
B|-1---1-1---1-1-0---1---1-1---1-1-0---------------------------------------------------------------|
G|-2---2-2---2-2-0---2---2-2---2-2-0---------------------------------------------------------------|
D|-3---3-3---3-3-0---3---3-3---3-3-0---------------------------------------------------------------|
A|-------------------------------------------------------------------------------------------------|
E|-------------------------------------------------------------------------------------------------|

E|-------------------------------------------------------------------------------------------------|
B|-1---1-1---1-1-0---3---3-3---3-3-0---------------------------------------------------------------|
G|-2---2-2---2-2-0---2---2-2---2-2-0---------------------------------------------------------------|
D|-2---2-2---2-2-0---2---2-2---2-2-0---------------------------------------------------------------|
A|-0---0-0---0-0-0---0---0-0---0-0-0---------------------------------------------------------------|
E|-------------------------------------------------------------------------------------------------|

E|-0---0-0---0-0-0---0---0-0---0-0-0---------------------------------------------------------------|
B|-1---1-1---1-1-0---1---1-1---1-1-0---------------------------------------------------------------|
G|-2---2-2---2-2-0---2---2-2---2-2-0---------------------------------------------------------------|
D|-3---3-3---3-3-0---3---3-3---3-3-0---------------------------------------------------------------|
A|-------------------------------------------------------------------------------------------------|
E|-------------------------------------------------------------------------------------------------|

E|-------------------------------------------------------------------------------------------------|
B|-1---1-1---1-1-0---3---3-3---3-3-0---------------------------------------------------------------|
G|-2---2-2---2-2-0---2---2-2---2-2-0---------------------------------------------------------------|
D|-2---2-2---2-2-0---2---2-2---2-2-0---------------------------------------------------------------|
A|-0---0-0---0-0-0---0---0-0---0-0-0---------------------------------------------------------------|
E|-------------------------------------------------------------------------------------------------|

E|-0---0-0---0-0-0---0---0-0---0-0-0---------------------------------------------------------------|
B|-1---1-1---1-1-0---1---1-1---1-1-0---------------------------------------------------------------|
G|-2---2-2---2-2-0---2---2-2---2-2-0---------------------------------------------------------------|
D|-3---3-3---3-3-0---3---3-3---3-3-0---------------------------------------------------------------|
A|-------------------------------------------------------------------------------------------------|
E|-------------------------------------------------------------------------------------------------|

E|-------------------------------------------------------------------------------------------------|
B|-1---1-1---1-1-0---3---3-3---3-3-0---------------------------------------------------------------|
G|-2---2-2---2-2-0---2---2-2---2-2-0---------------------------------------------------------------|
D|-2---2-2---2-2-0---2---2-2---2-2-0---------------------------------------------------------------|
A|-0---0-0---0-0-0---0---0-0---0-0-0---------------------------------------------------------------|
E|-------------------------------------------------------------------------------------------------|

E|-------------------------------------------------------------------------------------------------|
B|-----8-0---------------------0-------------------8-0---------------------0-----------------------|
G|---------------------------5-------------------------------------------5-------------------------|
D|---7---------------------2---------------------7---------------------2---------------------------|
A|-8---------------------0---------------------8---------------------0-----------------------------|
E|-------------------------------------------------------------------------------------------------|

E|-------------------------------------------------------------------------------------------------|
B|-----8-0---8---------8-0---8-----------------0---------------0-----------------------------------|
G|---------0---0-----------0---0---5-----5---------5-----5-----------------------------------------|
D|---7-----------7---7-----------7---2-----2-----2---2-----2-----2---------------------------------|
A|-8---------------8-------------------0-----0---------0-----0-------------------------------------|
E|-------------------------------------------------------------------------------------------------|

E|-------------------------------------------------------------------------------------------------|
B|-----8-0---8---------8-0---8-----------------0---------------0-----------------------------------|
G|---------0---0-----------0---0---5-----5---------5-----5-----------------------------------------|
D|---7-----------7---7-----------7---2-----2-----2---2-----2-----2---------------------------------|
A|-8---------------8-------------------0-----0---------0-----0-------------------------------------|
E|-------------------------------------------------------------------------------------------------|

E|-------------------------------------------------------------------------------------------------|
B|-----8-0---8---------8-0---8-----------------0---------------0-----------------------------------|
G|---------0---0-----------0---0---5-----5---------5-----5-----------------------------------------|
D|---7-----------7---7-----------7---2-----2-----2---2-----2-----2---------------------------------|
A|-8---------------8-------------------0-----0---------0-----0-------------------------------------|
E|-------------------------------------------------------------------------------------------------|

E|-------------------------------------------------------------------------------------------------|
B|-----8-0---8---------8-0---8-----------------0---------------0-----------------------------------|
G|---------0---0-----------0---0---5-----5---------5-----5-----------------------------------------|
D|---7-----------7---7-----------7---2-----2-----2---2-----2-----2---------------------------------|
A|-8---------------8-------------------0-----0---------0-----0-------------------------------------|
E|-------------------------------------------------------------------------------------------------|

E|-0---0-0---0-0-0---0---0-0---0-0-0---------------------------------------------------------------|
B|-1---1-1---1-1-0---1---1-1---1-1-0---------------------------------------------------------------|
G|-2---2-2---2-2-0---2---2-2---2-2-0---------------------------------------------------------------|
D|-3---3-3---3-3-0---3---3-3---3-3-0---------------------------------------------------------------|
A|-------------------------------------------------------------------------------------------------|
E|-------------------------------------------------------------------------------------------------|

E|-------------------------------------------------------------------------------------------------|
B|-1---1-1---1-1-0---3---3-3---3-3-0---------------------------------------------------------------|
G|-2---2-2---2-2-0---2---2-2---2-2-0---------------------------------------------------------------|
D|-2---2-2---2-2-0---2---2-2---2-2-0---------------------------------------------------------------|
A|-0---0-0---0-0-0---0---0-0---0-0-0---------------------------------------------------------------|
E|-------------------------------------------------------------------------------------------------|

E|-0---0-0---0-0-0---0---0-0---0-0-0---------------------------------------------------------------|
B|-1---1-1---1-1-0---1---1-1---1-1-0---------------------------------------------------------------|
G|-2---2-2---2-2-0---2---2-2---2-2-0---------------------------------------------------------------|
D|-3---3-3---3-3-0---3---3-3---3-3-0---------------------------------------------------------------|
A|-------------------------------------------------------------------------------------------------|
E|-------------------------------------------------------------------------------------------------|

E|-------------------------------------------------------------------------------------------------|
B|-1---1-1---1-1-0---3---3-3---3-3-0---------------------------------------------------------------|
G|-2---2-2---2-2-0---2---2-2---2-2-0---------------------------------------------------------------|
D|-2---2-2---2-2-0---2---2-2---2-2-0---------------------------------------------------------------|
A|-0---0-0---0-0-0---0---0-0---0-0-0---------------------------------------------------------------|
E|-------------------------------------------------------------------------------------------------|

E|-0---0-0---0-0-0---0---0-0---0-0-0---------------------------------------------------------------|
B|-1---1-1---1-1-0---1---1-1---1-1-0---------------------------------------------------------------|
G|-2---2-2---2-2-0---2---2-2---2-2-0---------------------------------------------------------------|
D|-3---3-3---3-3-0---3---3-3---3-3-0---------------------------------------------------------------|
A|-------------------------------------------------------------------------------------------------|
E|-------------------------------------------------------------------------------------------------|

E|-------------------------------------------------------------------------------------------------|
B|-1---1-1---1-1-0---3---3-3---3-3-0---------------------------------------------------------------|
G|-2---2-2---2-2-0---2---2-2---2-2-0---------------------------------------------------------------|
D|-2---2-2---2-2-0---2---2-2---2-2-0---------------------------------------------------------------|
A|-0---0-0---0-0-0---0---0-0---0-0-0---------------------------------------------------------------|
E|-------------------------------------------------------------------------------------------------|

E|-0---0-0---0-0-0---0---0-0---0-0-0---------------------------------------------------------------|
B|-1---1-1---1-1-0---1---1-1---1-1-0---------------------------------------------------------------|
G|-2---2-2---2-2-0---2---2-2---2-2-0---------------------------------------------------------------|
D|-3---3-3---3-3-0---3---3-3---3-3-0---------------------------------------------------------------|
A|-------------------------------------------------------------------------------------------------|
E|-------------------------------------------------------------------------------------------------|

E|-------------------------------------------------------------------------------------------------|
B|-1---1-1---1-1-0---3---3-3---3-3-0---------------------------------------------------------------|
G|-2---2-2---2-2-0---2---2-2---2-2-0---------------------------------------------------------------|
D|-2---2-2---2-2-0---2---2-2---2-2-0---------------------------------------------------------------|
A|-0---0-0---0-0-0---0---0-0---0-0-0---------------------------------------------------------------|
E|-------------------------------------------------------------------------------------------------|

E|---------7---------------7---------------8---------------8---------------------------------------|
B|-----5-------5-------5-------5-------6-------6-------6-------8-10--------------------------------|
G|---5---5---5---5---5---5---5---5---7-----------7---7---------------------------------------------|
D|---------------------------------------7---7-----------7---7-------------------------------------|
A|-0---------------0---------------0---------------0-----------------------------------------------|
E|-------------------------------------------------------------------------------------------------|

E|---------7---------------7---------------8---------------8---------------------------------------|
B|-----5-------5-------5-------5-------6-------6-------6-------8-10--------------------------------|
G|---5---5---5---5---5---5---5---5---7-----------7---7---------------------------------------------|
D|---------------------------------------7---7-----------7---7-------------------------------------|
A|-0---------------0---------------0---------------0-----------------------------------------------|
E|-------------------------------------------------------------------------------------------------|

E|---------7---------------7---------------8---------------8---------------------------------------|
B|-----5-------5-------5-------5-------6-------6-------6-------8-10--------------------------------|
G|---5---5---5---5---5---5---5---5---7-----------7---7---------------------------------------------|
D|---------------------------------------7---7-----------7---7-------------------------------------|
A|-0---------------0---------------0---------------0-----------------------------------------------|
E|-------------------------------------------------------------------------------------------------|

E|---------7---------------7---------------8---------------8---------------------------------------|
B|-----5-------5-------5-------5-------6-------6-------6-------8-10--------------------------------|
G|---5---5---5---5---5---5---5---5---7-----------7---7---------------------------------------------|
D|---------------------------------------7---7-----------7---7-------------------------------------|
A|-0---------------0---------------0---------------0-----------------------------------------------|
E|-------------------------------------------------------------------------------------------------|

E|---------7---------------7---------------8---------------8---------------------------------------|
B|-----5-------5-------5-------5-------6-------6-------6-------8-10--------------------------------|
G|---5---5---5---5---5---5---5---5---7-----------7---7---------------------------------------------|
D|---------------------------------------7---7-----------7---7-------------------------------------|
A|-0---------------0---------------0---------------0-----------------------------------------------|
E|-------------------------------------------------------------------------------------------------|

E|---------7---------------7---------------8---------------8---------------------------------------|
B|-----5-------5-------5-------5-------6-------6-------6-------8-10--------------------------------|
G|---5---5---5---5---5---5---5---5---7-----------7---7---------------------------------------------|
D|---------------------------------------7---7-----------7---7-------------------------------------|
A|-0---------------0---------------0---------------0-----------------------------------------------|
E|-------------------------------------------------------------------------------------------------|


E|-0---0-0---0-0-0---0---0-0---0-0-0---------------------------------------------------------------|
B|-1---1-1---1-1-0---1---1-1---1-1-0---------------------------------------------------------------|
G|-2---2-2---2-2-0---2---2-2---2-2-0---------------------------------------------------------------|
D|-3---3-3---3-3-0---3---3-3---3-3-0---------------------------------------------------------------|
A|-------------------------------------------------------------------------------------------------|
E|-------------------------------------------------------------------------------------------------|

E|-------------------------------------------------------------------------------------------------|
B|-1---1-1---1-1-0---3---3-3---3-3-0---------------------------------------------------------------|
G|-2---2-2---2-2-0---2---2-2---2-2-0---------------------------------------------------------------|
D|-2---2-2---2-2-0---2---2-2---2-2-0---------------------------------------------------------------|
A|-0---0-0---0-0-0---0---0-0---0-0-0---------------------------------------------------------------|
E|-------------------------------------------------------------------------------------------------|

E|-0---0-0---0-0-0---0---0-0---0-0-0---------------------------------------------------------------|
B|-1---1-1---1-1-0---1---1-1---1-1-0---------------------------------------------------------------|
G|-2---2-2---2-2-0---2---2-2---2-2-0---------------------------------------------------------------|
D|-3---3-3---3-3-0---3---3-3---3-3-0---------------------------------------------------------------|
A|-------------------------------------------------------------------------------------------------|
E|-------------------------------------------------------------------------------------------------|

E|-------------------------------------------------------------------------------------------------|
B|-1---1-1---1-1-0---3---3-3---3-3-0---------------------------------------------------------------|
G|-2---2-2---2-2-0---2---2-2---2-2-0---------------------------------------------------------------|
D|-2---2-2---2-2-0---2---2-2---2-2-0---------------------------------------------------------------|
A|-0---0-0---0-0-0---0---0-0---0-0-0---------------------------------------------------------------|
E|-------------------------------------------------------------------------------------------------|

E|-0---0-0---0-0-0---0---0-0---0-0-0---------------------------------------------------------------|
B|-1---1-1---1-1-0---1---1-1---1-1-0---------------------------------------------------------------|
G|-2---2-2---2-2-0---2---2-2---2-2-0---------------------------------------------------------------|
D|-3---3-3---3-3-0---3---3-3---3-3-0---------------------------------------------------------------|
A|-------------------------------------------------------------------------------------------------|
E|-------------------------------------------------------------------------------------------------|

E|-------------------------------------------------------------------------------------------------|
B|-1---1-1---1-1-0---3---3-3---3-3-0---------------------------------------------------------------|
G|-2---2-2---2-2-0---2---2-2---2-2-0---------------------------------------------------------------|
D|-2---2-2---2-2-0---2---2-2---2-2-0---------------------------------------------------------------|
A|-0---0-0---0-0-0---0---0-0---0-0-0---------------------------------------------------------------|
E|-------------------------------------------------------------------------------------------------|

E|-0---0-0---0-0-0---0---0-0---0-0-0---------------------------------------------------------------|
B|-1---1-1---1-1-0---1---1-1---1-1-0---------------------------------------------------------------|
G|-2---2-2---2-2-0---2---2-2---2-2-0---------------------------------------------------------------|
D|-3---3-3---3-3-0---3---3-3---3-3-0---------------------------------------------------------------|
A|-------------------------------------------------------------------------------------------------|
E|-------------------------------------------------------------------------------------------------|

E|-------------------------------------------------------------------------------------------------|
B|-1---1-1---1-1-0---3---3-3---3-3-0---------------------------------------------------------------|
G|-2---2-2---2-2-0---2---2-2---2-2-0---------------------------------------------------------------|
D|-2---2-2---2-2-0---2---2-2---2-2-0---------------------------------------------------------------|
A|-0---0-0---0-0-0---0---0-0---0-0-0---------------------------------------------------------------|
E|-------------------------------------------------------------------------------------------------|

E|-0---0-0---0-0-0---0---0-0---0-0-0---------------------------------------------------------------|
B|-1---1-1---1-1-0---1---1-1---1-1-0---------------------------------------------------------------|
G|-2---2-2---2-2-0---2---2-2---2-2-0---------------------------------------------------------------|
D|-3---3-3---3-3-0---3---3-3---3-3-0---------------------------------------------------------------|
A|-------------------------------------------------------------------------------------------------|
E|-------------------------------------------------------------------------------------------------|

E|-------------------------------------------------------------------------------------------------|
B|-1---1-1---1-1-0---3---3-3---3-3-0---------------------------------------------------------------|
G|-2---2-2---2-2-0---2---2-2---2-2-0---------------------------------------------------------------|
D|-2---2-2---2-2-0---2---2-2---2-2-0---------------------------------------------------------------|
A|-0---0-0---0-0-0---0---0-0---0-0-0---------------------------------------------------------------|
E|-------------------------------------------------------------------------------------------------|

E|-0---0-0---0-0-0---0---0-0---0-0-0---------------------------------------------------------------|
B|-1---1-1---1-1-0---1---1-1---1-1-0---------------------------------------------------------------|
G|-2---2-2---2-2-0---2---2-2---2-2-0---------------------------------------------------------------|
D|-3---3-3---3-3-0---3---3-3---3-3-0---------------------------------------------------------------|
A|-------------------------------------------------------------------------------------------------|
E|-------------------------------------------------------------------------------------------------|

E|-------------------------------------------------------------------------------------------------|
B|-1---1-1---1-1-0---3---3-3---3-3-0---------------------------------------------------------------|
G|-2---2-2---2-2-0---2---2-2---2-2-0---------------------------------------------------------------|
D|-2---2-2---2-2-0---2---2-2---2-2-0---------------------------------------------------------------|
A|-0---0-0---0-0-0---0---0-0---0-0-0---------------------------------------------------------------|
E|-------------------------------------------------------------------------------------------------|

E|-0---0-0---0-0-0---0---0-0---0-0-0---------------------------------------------------------------|
B|-1---1-1---1-1-0---1---1-1---1-1-0---------------------------------------------------------------|
G|-2---2-2---2-2-0---2---2-2---2-2-0---------------------------------------------------------------|
D|-3---3-3---3-3-0---3---3-3---3-3-0---------------------------------------------------------------|
A|-------------------------------------------------------------------------------------------------|
E|-------------------------------------------------------------------------------------------------|

E|-------------------------------------------------------------------------------------------------|
B|-1---1-1---1-1-0---3---3-3---3-3-0---------------------------------------------------------------|
G|-2---2-2---2-2-0---2---2-2---2-2-0---------------------------------------------------------------|
D|-2---2-2---2-2-0---2---2-2---2-2-0---------------------------------------------------------------|
A|-0---0-0---0-0-0---0---0-0---0-0-0---------------------------------------------------------------|
E|-------------------------------------------------------------------------------------------------|

E|-0---0-0---0-0-0---0---0-0---0-0-0---------------------------------------------------------------|
B|-1---1-1---1-1-0---1---1-1---1-1-0---------------------------------------------------------------|
G|-2---2-2---2-2-0---2---2-2---2-2-0---------------------------------------------------------------|
D|-3---3-3---3-3-0---3---3-3---3-3-0---------------------------------------------------------------|
A|-------------------------------------------------------------------------------------------------|
E|-------------------------------------------------------------------------------------------------|

E|-------------------------------------------------------------------------------------------------|
B|-1---1-1---1-1-0---3---3-3---3-3-0---------------------------------------------------------------|
G|-2---2-2---2-2-0---2---2-2---2-2-0---------------------------------------------------------------|
D|-2---2-2---2-2-0---2---2-2---2-2-0---------------------------------------------------------------|
A|-0---0-0---0-0-0---0---0-0---0-0-0---------------------------------------------------------------|
E|-------------------------------------------------------------------------------------------------|

E|-------------------------------------------------------------------------------------------------|
B|-----8-0---------------------0-------------------8-0---------------------0-----------------------|
G|---------------------------5-------------------------------------------5-------------------------|
D|---7---------------------2---------------------7---------------------2---------------------------|
A|-8---------------------0---------------------8---------------------0-----------------------------|
E|-------------------------------------------------------------------------------------------------|
Composição de Agnes Toth e Mihaly Szabo
Colaboração e revisão:
  • Victor Hugo
525 exibições
    • ½ Tom
    • A
    • Bb
    • B
    • C
    • Db
    • D
    • Eb
    • E
    • F
    • F#
    • G
    • Ab
  • Adicionar à lista

    0 comentários

    Mostrar mais comentários

    Conseguiu tocar?

    1 Tocaram 0 Ainda não

    Grave um vídeo tocando The Secret Path e mande pra gente!

    00:00 / 00:00
    outros vídeos desta música
    repetir qualidade Automático
    Outros vídeos desta música
    00:00 / 00:00
    Automático

    Cifra Club Pro

    Aproveite o Cifra Club com benefícios exclusivos e sem anúncios
    7 dias grátis
    Cifra Club Pro
    Aproveite o Cifra Club com benefícios exclusivos e sem anúncios
    7 dias grátis
    OK