Cifra Club

Aprenda

Say My Name / Cry Me a River

The Neighbourhood

Cifra: Principal (violão e guitarra)
Tom: A
[Riff]

E|------------|
B|------------|
G|------------|
D|------------|
A|-3--1-------|
E|-------4--1-|

Fm                  Db
Say my name, say my name
             Bbm                      C7
If no one is around you, say baby, I love you

If you ain't runnin'
Fm                  Db
Say my name, say my name
                 Bbm                      C7
You actin' kinda shady, ain't calling me baby
               Fm
Why the sudden
                 Db
Say my name, say my name
               Bbm                     C7
If no one is around you, say baby, I love you

If you ain't runnin' game
Fm             Db
Say my name, my name
Bbm             C7
Say my name, my name

[Primeira Parte]

Fm                     Db
Any other day I would call

You would say
Bbm
"baby how's your day?"
    C
But today it aint the same
Fm
Every other word is
Db
Uh Huh, Yea okay
Bbm
Could it be that you
           C
Are at the crib with anotha lady?
Fm                           Db
If you took it there first of all
            Bbm
Let me say, I am not the one
       C
To sit around and be played
    Fm
So prove your self to me
       Db
I am the one that you claim
    Bbm
Why don't you say the things
         C
That you said to me yesterday?

Fm                          Eb
I know you say that I'm assuming things
Db                                Ab
Something's going down thats the way it seems
Fm                                  Eb
Shouldn't be the reason why you're acting strange
  Db                    Ab
If nobody's holding you back from me
      Fm             Eb
Cause I know how you use to do
          Db               Ab
When you say everything to me times two
Fm                 Eb
Why can't you just tell the truth?
Db                       Ab
If somebody's there then tell me who

[Refrão]

Fm                    Db
Say my name, say my name
               Bbm
If no one is around you
            C
Say baby i love you
                   Fm
If you aint runnin games
                     Db
Say my name, say my name
                Bbm
You actin kinda shady
               C
Aint callin me baby

Why the sudden

Fm                    Db
Say my name, say my name
               Bbm
If no one is around you
            C
Say baby I love you
                   Fm
If you ain't runnin games
                    Db
Say my name, say my name
       Bbm               C
Say my name, my name, my name

[Segunda Parte]

Fm            Db
I know that they say that some things
      Bbm          C
Are better left unsaid
Fm              Db
And it wasn't like you only
 Bbm                    C
Talked to him and you know it
(Don't act like)
Fm             Db
All of these things people told me
       Bbm              C
Keep messing with my head
Fm                    Db
You should've picked honesty
      Bbm                 C
Then you may not have blown it

     Fm                        Eb
But You don't have to say,just what you did,
  Db              Ab
I already know, I found out from him
Fm                           Eb                 Db
Now there's just no chance, for you and me, there'll never be

 Fm              Db
You told me you loved me
          Bbm               C
Why did you leave me, all alone
Fm                 Db
Now you tell me you need me
Bbm                   C
When you call me, on the phone
Fm         Db                       Bbm
Girl I refuse, you must have me confused
                 C
With some other guy
Fm                 Db                         Bbm
Your bridges were burned, and now it's your turn
              C
Your turn to cry

[Refrão]

             Fm   Db
So cry me a river
         Bbm      C
Cry me a river-er
       Fm       Db
Cry me a river
       Bbm       C
Cry me a river-er, yea yea

Fm  Db  Bbm  C
You say yeah yeah
You say yeah yeah
You say yeah yeah
You say yeah yeah
I say no no
You say yeah yeah
I say no no
You say no no no

Fm                    Db
Say my name, say my name
               Bbm
If no one is around you
            C
Say baby I love you
                    Fm
If you aint runnin games
                  Db
Say my name, my name
                   Bbm       C
You actin' kinda shady .. oh
                 Fm
Why the sudden change

Say my name, my name
                           Fm  Db  Bbm  C
Say my name then cry me a river
                          Fm   Db  Bbm  C
Say my name then cry me a river
                             Fm  Db  Bbm  C
Say my name then cry me a river

[Solo Final]

E|-----------------------------------------|
B|------------------------6----------------|
G|-----------------------5-----------------|
D|--3--3-5-6--5-3-------6---6-6/8--6p5p3---|
A|-----------------3-4---------------------|
E|-----------------------------------------|

E|-----------------------------------------|
B|-----------------------------------------|
G|-----------------------------------------|
D|--6-8/10\8-6~----------------------------|
A|-----------------------------------------|
E|-----------------------------------------|

E|-----------------------------------------|
B|------------------------6----------------|
G|-----------------------5-----------------|
D|--3--3-5-6--5-3-------6------------------|
A|-----------------3-4---------------------|
E|-----------------------------------------|

E|-----------------------------------------|
B|-----------------------13-13--9h11-11p9--|
G|-10--10-12-13---------10---------------10|
D|--------------10-11--11------------------|
A|-----------------------------------------|
E|-----------------------------------------|

E|-----------------------------------------|
B|-11b13--13b11--9-------------------------|
G|-----------------------------------------|
D|-----------------------------------------|
A|-----------------------------------------|
E|-----------------------------------------|

E|-----------------------------------------|
B|-----------------------13----13-----13~--|
G|-10--10-12-13---------10----10-----10~---|
D|--------------10-11--11----11-----11~----|
A|-----------------------------------------|
E|-----------------------------------------|
82.277 exibições
    • ½ Tom
    • A
    • Bb
    • B
    • C
    • Db
    • D
    • Eb
    • E
    • F
    • F#
    • G
    • Ab
  • Adicionar à lista

    0 comentários

    Mostrar mais comentários

    Conseguiu tocar?

    25 Tocaram 8 Ainda não

    Grave um vídeo tocando Say My Name / Cry Me a River e mande pra gente!

    00:00 / 00:00
    outros vídeos desta música
    repetir qualidade Automático
    Outros vídeos desta música
    00:00 / 00:00
    Automático

    Cifra Club Pro

    Aproveite o Cifra Club com benefícios exclusivos e sem anúncios
    7 dias grátis
    Cifra Club Pro
    Aproveite o Cifra Club com benefícios exclusivos e sem anúncios
    7 dias grátis
    OK