Cifra Club

Sweater Weather

The Neighbourhood

Cifra: Principal (violão e guitarra)
tom: F (forma dos acordes no tom de G) Afinação: D G C F A D
[Intro] 

[Primeira Parte] 

Parte 1 de 2
   F            Dm7
E|------------------------------------------|
B|----------------------13------------------|
G|------2/14--------14------14--------------|
D|------------------------------------------|
A|------------------------------------------|
E|-1----------------------------------------|

Parte 2 de 2
   Am           C6
E|------------------17----------------------|
B|----------------------17------------------|
G|---------17---------------17--------------|
D|-----14-----------------------------------|
A|-12---------------------------------------|
E|------------------------------------------|

      F        Dm7
All I am is a man
            Am          C6
I want the world in my hands
            F             Dm7
I hate the beach, but I stand
        Am
In California
                     C6
With my toes in the sand
                        F
Use the sleeves of my sweater
                 Dm7
Let's have an adventure
              Am
Head in the clouds  
                  C6
But my gravity's centered
          F                   Dm7
Touch my neck and I'll touch yours
              Am
You in those little high 
          C6
Waisted shorts

Tab - Riff 1
E|-----------------------------------------------------|
B|-----------------------------------------------------|
G|-9\----7/----9---------------------------------------|
D|-----------------------------------------------------|
A|-7\----5/----7---------------------------------------|
E|-----------------------------------------------------|

[Refrão] 

F                              Dm
  She knows what I think about
                       Am
And what I think about
                     C
One love, two mouths
                    F
One love, one house
                    Dm
No shirt, no blouse
               
Just us, you find out
 Am
Nothing that wouldn't
                      C
Wanna tell you about no
                 F   Dm
'Cause it's too cold
         Am       C
For you here and now
           F    Dm
So let me hold
           Am   
Both your hands in 
     C
The holes of my sweater

[Segunda Parte] 

Parte 1 De 2
   F            Dm7
E|------------------------------------------|
B|----------------------13------------------|
G|------2/14--------14------14--------------|
D|------------------------------------------|
A|------------------------------------------|
E|-1----------------------------------------|

Parte 2 De 2
   Am           C6
E|------------------17----------------------|
B|----------------------17------------------|
G|---------17---------------17--------------|
D|-----14-----------------------------------|
A|-12---------------------------------------|
E|------------------------------------------|

          F
And if I may just take
                 
Your breath away
Dm7
I don't mind if there's 

Not much to say
 Am
Sometimes the silence guides our minds
    C6                         F
To move to a place so far away
       
The goosebumps start to raise
     Dm7
The minute that my left hand 
                 Am
Meets your waist
            
And then I watch your face
        C6
Put my finger on your tongue
                          F
'cause you love to taste
                  
These hearts adore
Dm7                     
Everyone the other beats 
            Am
Hardest for
                           C6
Inside, this place is warm

Outside, it starts to pour

[Tab - Riff 2] 

E|-----------------------------------------------------|
B|-----------------------------------------------------|
G|-9\----7/----9---------------------------------------|
D|-----------------------------------------------------|
A|-7\----5/----7---------------------------------------|
E|-----------------------------------------------------|

[Refrão] 

F             Dm
  Coming down
               Am
One love, two mouths
                    C
One love, one house 
                    F
No shirt, no blouse
 
Just us, you find out
 Dm
Nothing that I wouldn't 
                       Am      C
Wanna tell you about, no, no, no

                F   Dm
Cause it's too cold
         Am       C
For you here and now
           F   Dm
So let me hold
           Am   
Both your hands in 
     C
The holes of my sweater

                 F   Dm
'Cause it's too cold
         Am       C
For you here and now
           F   Dm
So let me hold
           Am
Both your hands in 
     C                  G
The holes of my sweater

[Interlúdio] Dm  C  G

[Final] 

                 F   Dm
'Cause it's too cold
         Am       C
For you here and now
           F   Dm
So let me hold
           Am
Both your hands in 
     C
The holes of my sweater

                 F   Dm
'Cause it's too cold
         Am       C
For you here and now
        F   Dm
Let me hold
           Am
Both your hands in 
     C                  F
The holes of my sweater

          Dm
It's too cold
          Am
It's too cold
     C
The holes of my sweater

00:00 / 00:00
Outros vídeos desta música
Repetir
Outros vídeos desta música
Composição de Jeremy Freedman / Jesse Rutherford / Zach Abels
1.116.546 exibições
  • Simplificar cifra
    • ½ Tom
    • A
    • Bb
    • B
    • C
    • Db
    • D
    • Eb
    • E
    • F
    • F#
    • G
    • Ab
  • Adicionar à lista

    0 comentários

    Ver todos os comentários

    Entre para oCifra Club PRO

    Tenha acesso a benefícios exclusivos no App e no Site

    • Chega de anúncios

    • Prioridade de compra em lançamentos

    • Mais recursos no app do Afinador

    • Atendimento Prioritário

    • Descontos nos produtos Cifra Club

    • Ajude a produzir mais conteúdo

    00:00 / 00:00
    Capítulos
    • Tocando a Música
    • Afinação
    • Regulagem dos Pedais
    • Ensinando Riff Principal
    • Ensinando Passagem
    • Ensinando Ritmos da Música
    • Encerramento

    Cifra Club Pro

    Aproveite o Cifra Club com benefícios exclusivos e sem anúncios
    Cifra Club Pro
    Aproveite o Cifra Club com benefícios exclusivos e sem anúncios
    OK