Cifra Club

Aprenda

Why'd You Bring a Shotgun To The Party

The Pretty Reckless

Cifra: Principal (violão e guitarra)
tom: G
Afinação: D A D G B E

E|---------------------------------------------------------------------|
B|---------------------------------------------------------------------|
G|---------------------------------------------------------------------|
D|-----4-4---7-7-4-----------------------------------------------------|  4x
A|-----4-4---7-7-4-----------------------------------------------------|
D|-----4-4---7-7-4-----------------------------------------------------|

E|---------------------------------------------------------------------|
B|---------------------------------------------------------------------|
G|---------------------------------------------------------------------|
D|-----4-4---7-7-4-----------------------------------------------------|  4x
A|-----4-4---7-7-4-----------------------------------------------------|
D|-----4-4---7-7-4-----------------------------------------------------|
  PM...............

E|---------------------------------------------------------------------|
B|---------------------------------------------------------------------|
G|---------------------------------------------------------------------|
D|-----4--4-4----3--3-3----2--2-2----3--3-3----------------------------|  3x
A|-----4--4-4----3--3-3----2--2-2----3--3-3----------------------------|
D|-----4--4-4----3--3-3----2--2-2----3--3-3----------------------------|
  PM.......................................

E|---------------------------------------------------------------------|
B|---------------------------------------------------------------------|
G|---------------------------------------------------------------------|
D|-----9---------11----------------------------------------------------| 
A|-----9---------11----------------------------------------------------|
D|-----9---------11----------------------------------------------------|

E|---------------------------------------------------------------------|
B|---------------------------------------------------------------------|
G|---------------------------------------------------------------------|
D|-----4-4---7-7-4-----------------------------------------------------|  2x
A|-----4-4---7-7-4-----------------------------------------------------|
D|-----4-4---7-7-4-----------------------------------------------------|

E|---------------------------------------------------------------------|
B|---------------------------------------------------------------------|
G|---------------------------------------------------------------------|
D|-----4-4---7-7-4-----------------------------------------------------|  4x
A|-----4-4---7-7-4-----------------------------------------------------|
D|-----4-4---7-7-4-----------------------------------------------------|
  PM..............

E|---------------------------------------------------------------------|
B|---------------------------------------------------------------------|
G|---------------------------------------------------------------------|
D|-----4--4-4----3--3-3----2--2-2----3--3-3----------------------------| 
A|-----4--4-4----3--3-3----2--2-2----3--3-3----------------------------|
D|-----4--4-4----3--3-3----2--2-2----3--3-3----------------------------|
  PM.......................................
 
E|---------------------------------------------------------------------|
B|---------------------------------------------------------------------|
G|---------------------------------------------------------------------|
D|-----9---------11----------------------------------------------------| 
A|-----9---------11----------------------------------------------------|
D|-----9---------11----------------------------------------------------|

E|---------------------------------------------------------------------|
B|---------------------------------------------------------------------|
G|---------------------------------------------------------------------|
D|-----4-4-4-4-4-4---7-7-----------------------------------------------|  3x
A|-----4-4-4-4-4-4---7-7-----------------------------------------------|
D|-----4-4-4-4-4-4---7-7-----------------------------------------------|

E|---------------------------------------------------------------------|
B|---------------------------------------------------------------------|
G|---------------------------------------------------------------------|
D|-----11-9---7-7-7-7-7-7-7--6-6-6-6--5-5-5-5--------------------------| 
A|-----11-9---7-7-7-7-7-7-7--6-6-6-6--5-5-5-5--------------------------|
D|-----11-9---7-7-7-7-7-7-7--6-6-6-6--5-5-5-5--------------------------|

E|---------------------------------------------------------------------|
B|---------------------------------------------------------------------|
G|---------------------------------------------------------------------|
D|-----4-4---7-7-4-----------------------------------------------------|  2x
A|-----4-4---7-7-4-----------------------------------------------------|
D|-----4-4---7-7-4-----------------------------------------------------|

Solo:

E|---------------------------------------------------------------------|
B|---------------------------------------------------------------------|
G|---------------------------------------------------------------------|
D|-----4--4-4----3--3-3----2--2-2----3--3-3----9--11-------------------| 
A|-----4--4-4----3--3-3----2--2-2----3--3-3----9--11-------------------|
D|-----4--4-4----3--3-3----2--2-2----3--3-3----9--11-------------------|

E|---------------------------------------------------------------------|
B|---------------------------------------------------------------------|
G|---------------------------------------------------------------------|
D|---------------------------------------------------------------------| 
A|----9-9-9-9--10-10-10-10--11-11-11-11--12-12-12-12-------------------|
D|---------------------------------------------------------------------|

E|---------------------------------------------------------------------|
B|---------------------------------------------------------------------|
G|---------------------------------------------------------------------|
D|---------------------------------------------------------------------| 
A|----13-13--14-14--15-15--16-16--17-17--18-18--19~~-------------------|
D|---------------------------------------------------------------------|
Compositor não encontrado.
Colaboração e revisão:
  • Carlos Eduardo
1.222 exibições
    • ½ Tom
    • A
    • Bb
    • B
    • C
    • Db
    • D
    • Eb
    • E
    • F
    • F#
    • G
    • Ab
  • Adicionar à lista

    0 comentários

    Ver todos os comentários

    Conseguiu tocar?

    0 Tocaram 0 Ainda não

    Grave um vídeo tocando Why'd You Bring a Shotgun To The Party e nos envie!

    00:00 / 00:00
    Outros vídeos desta música
    Repetir Qualidade Automático
    Outros vídeos desta música
    00:00 / 00:00
    Automático

    Cifra Club Pro

    Aproveite o Cifra Club com benefícios exclusivos e sem anúncios
    Cifra Club Pro
    Aproveite o Cifra Club com benefícios exclusivos e sem anúncios
    OK