Cifra Club

Blue Veins

The Raconteurs

Cifra: Principal (violão e guitarra)
exibições 3.799
Tom: C
Album: Broken Boy Soldiers
Year: 2006

The closest I ever got to the true spirit of the blues, raw human emotion, is through
song. I saw them live at leeds festival and when they played this I slipped into a trance.
was one of the best moments of my life; the song seemed to stretch on for eternity and I 
one with the band and everyone else in the crowd. This song is the most perfect
record ever.

NOTE: The only chord played throughtout this song is Dm on the fifth; piano and the two
fill everything else.

INTRO: (Random stuff played backwards till 0:38)

E----
A----
D----
G-7--
B-6--
e-5--  first time then full chord used second and third times

E-5--
A-5--
D-7--
G-7--
B-6--
e-5--


RIFF 1;

E-----------------|
A-----------------|
D-----------------|
G--2--5-----5-----|
B--------3-----3--|
e-----------------|

RIFF 2;

E-----------------------|
A-----------------------|
D-----------------------|
G----------------5--2~--|
B--4b6-4b6-4b6-3--------|
e-----------------------|

CHORUS;

E--3--5--5--5--5--5----------------------------5-|
A--------5--5--5----5-------5------------------5-|
D--------7--7--7------7---7-------7--7---------7-|
G--------7--7--7--------7---------7--7------7--7-|
B--------6--6--6------------------6--6----6----6-|
e--------5--5--5---------------5--5--5--5------5-|
Acordes para:

    0 comentários

    mostrar mais comentários

    Conseguiu tocar?

    0 tocaram 0 ainda não

    Grave um vídeo tocando Blue Veins e mande pra gente!

    00:00 / 00:00
    outros vídeos desta música
    repetir qualidade Automático
    Outro vídeos desta música
    00:00 / 00:00
    Automático
    OK