Cifra Club

Aprenda

God Gave Me Everything

The Rolling Stones

Cifra: Principal (violão e guitarra)
Tom: D
E |---------------------------------------------------------------------
B |---------------------------------------------------------------------
G |-6-6-6-6-6-6-6-6--9-9-9-9-9-9-9-9------------------------------------
D |-6-6-6-6-6-6-6-6--9-9-9-9-9-9-9-9--7-7-7-7-7-7-7-7--4-4-4-4-4-4-4-4--
A |-4-4-4-4-4-4-4-4--7-7-7-7-7-7-7-7--7-7-7-7-7-7-7-7--4-4-4-4-4-4-4-4--
E |-----------------------------------5-5-5-5-5-5-5-5--2-2-2-2-2-2-2-2--

E |------------------------|----------------------------
B |---2-------2-------2----|---3---1-3-------3---1-3----
G |-1---1---1---1---1---1--|-2---2-----2---2---2-----2--
D |------------------------|----------------------------
A |------------------------|----------------------------
E |------------------------|----------------------------

E |-------------------------------------------
B |-------------------------------------------
G |-5-5-5-5-5-5-5-5-5-5--3-3-3-3-3-3-3-3-3-3--
D |-5-5-5-5-5-5-5-5-5-5--3-3-3-3-3-3-3-3-3-3--
A |-3-3-3-3-3-3-3-3-3-3--1-1-1-1-1-1-1-1-1-1--
E |-------------------------------------------

E |-9-7----------7-9~--11-12~--14^15^14-----------------
B |-----10-9-7h9----------------------------------------
G |--------------------------------------13~--11-9-11~--
D |-----------------------------------------------------
A |-----------------------------------------------------
E |-----------------------------------------------------

E |--------------------------------9--9-9-9--11-12---14-12-14-16~--
B |------9--9-9-9-9--12--12---9h12----------------------------VV---
G |-9-11-----------------VV----------------------------------------
D |----------------------------------------------------------------
A |----------------------------------------------------------------
E |----------------------------------------------------------------

E |---------------------------------------------------------------------
B |---------------------------------------------------------------------
G |-6-6-6-6-6-6-6-6--9-9-9-9-9-9-9-9------------------------------------
D |-x-x-x-x-x-x-x-x--x-x-x-x-x-x-x-x--9-9-9-9-9-9-9-9--7-7-7-7-7-7-7-7--
A |-4-4-4-4-4-4-4-4--7-7-7-7-7-7-7-7--x-x-x-x-x-x-x-x--x-x-x-x-x-x-x-x--
E |-----------------------------------7-7-7-7-7-7-7-7--5-5-5-5-5-5-5-5--
1.047 exibições
    • ½ Tom
    • A
    • Bb
    • B
    • C
    • Db
    • D
    • Eb
    • E
    • F
    • F#
    • G
    • Ab
  • Adicionar à lista

    0 comentários

    Mostrar mais comentários

    Conseguiu tocar?

    0 Tocaram 0 Ainda não

    Grave um vídeo tocando God Gave Me Everything e mande pra gente!

    00:00 / 00:00
    outros vídeos desta música
    repetir qualidade Automático
    Outros vídeos desta música
    00:00 / 00:00
    Automático

    Cifra Club Pro

    Aproveite o Cifra Club com benefícios exclusivos e sem anúncios
    7 dias grátis
    Cifra Club Pro
    Aproveite o Cifra Club com benefícios exclusivos e sem anúncios
    7 dias grátis
    OK