Cifra Club

Aprenda

Heart Of Stone

The Rolling Stones

Cifra: Principal (violão e guitarra)
Tom: D
E |-1-1-1-|-0--0-0-0--0---0-0-0--0--0-0-0--1-1-1-|
B |-0-0-0-|-1--1-1-1--1---1-1-1--1--1-1-1--0-0-0-|
G |-0-0-0-|-0--0-0-0--0---0-0-0--0--0-0-0--0-0-0-|
D |-------|-2--2-2-2--2---2-2-2--2--2-2-2--------|
A |-------|-3--3-3-3--3---3-3-3--3--3-3-3--------|
E |-------|--------------------------------------|

E |-0--0-0-0--0--0-0-0--0--0-0-0---1-1-1-----|
B |-1--1-1-1--1--1-1-1--1--1-1-1---0-0-0-----|
G |-0--0-0-0--0--0-0-0--0--0-0-0---0-0-0-----|
D |-2--2-2-2--2--2-2-2--2--2-2-2-------------|
A |-3--3-3-3--3--3-3-3--3--3-3-3-------------|
E |------------------------------------------|

E |-0--0-0-0--0--0-0-0--0--0-0-0---0-0-0-----|
B |-1--1-1-1--1--1-1-1--1--1-1-1---1-1-1-----|
G |-0--0-0-0--0--0-0-0--0--0-0-0---3-3-3-----|
D |-2--2-2-2--2--2-2-2--2--2-2-2---2-2-2-----|
A |-3--3-3-3--3--3-3-3--3--3-3-3---3-3-3-----|
E |------------------------------------------|

E |-1--1-1-1--1--1-1----1--1-1-1------------|
B |-1--1-1-1--1--1-1-3--1--1-1-1-----1------|
G |-2--2-2-2--2--2-2-3--2--2-2-2-----2--2---|
D |-3--3-3-3--3--3-3-3--3--3-3-3--3-----3---|
A |-----------------------------------------|
E |-----------------------------------------|

E |-2--2--2--2--2--2--2--2-2-2--2--------------|
B |-3--3--3--3--3--3--3--3-3-3--3--------------|
G |-2--2--2--2--2--2--2--2-2-2--2--------------|
D |-0--0--0--0--0--0--0--0-0-0--0--------------|
A |--------------------------------------------|
E |---------------------------------------2----|

E |------3---3---3---3---3--3--3---3---------|
B |------0---0---0---0---0--0--0---0---------|
G |------0---0---0---0---0--0--0---0---------|
D |------0---0---0---0---0--0--0---0---------|
A |------------------------------------------|
E |-3----------------------------------3--4--|

E |----0--0-0-0--0--0-0---0--0-0-0--0--------|
B |----1--1-1-1--1--1-1---1--1-1-1--1--------|
G |----2--2-2-2--2--2-2---2--2-2-2--2--------|
D |----2--2-2-2--2--2-2---2--2-2-2--2--------|
A |------------------------------------------|
E |-0----------------------------------3--4--|

E |--------------0----0--0-0--0--0-0-0--0--------|
B |--------------1----1--1-1--1--1-1-1--1--------|
G |--------------2----2--2-2--2--2-2-2--2--------|
D |--------------2----2--2-2--2--2-2-2--2--------|
A |-0--------------------------------------------|
E |----------------------------------------3--4--|

E |----0--0-0-0--0--0-0---0--0-0-0--0--------|
B |----1--1-1-1--1--1-1---1--1-1-1--1--------|
G |----2--2-2-2--2--2-2---2--2-2-2--2--------|
D |----2--2-2-2--2--2-2---2--2-2-2--2--------|
A |-0----------------------------------------|
E |------------------------------------2--3--|

E |--------------0----0--0-0--0--0-0-0--0--0-0-0--|
B |--------------1----1--1-1--1--1-1-1--1--1-1-1--|
G |--------------2----2--2-2--2--2-2-2--2--2-2-2--|
D |--------------2----2--2-2--2--2-2-2--2--2-2-2--|
A |-0---------------------------------------------|
E |-----------------------------------------------|

E |-1--1-1-1--1--1-1-1--1--1-1-1--1--1-1-1--|
B |-1--1-1-1--1--1-1-1--1--1-1-1--1--1-1-1--|
G |-2--2-2-2--2--2-2-2--2--2-2-2--2--2-2-2--|
D |-3--3-3-3--3--3-3-3--3--3-3-3--3--3-3-3--|
A |-3--3-3-3--3--3-3-3--3--3-3-3--3--3-3-3--|
E |-----------------------------------------|

E |-3--3-3-3--3--3-----3------------------|
B |-3--3-3-3--3--3--5--3------------------|
G |-4--4-4-4--4--4--5--4------------------|
D |-5--5-5-5--5--5--5--5------------------|
A |---------------------------------------|
E |---------------------------------------|

E |-0-----------------------------|
B |-1-----------------------------|
G |-2-----------------------------|
D |-2-----------------------------|
A |---------------------------0-2-|
E |-------------------------------|

E |-0--------------------------------|
B |-1-------------0------------------|
G |-0-------------0------------------|
D |-2-------------0------------------|
A |-3--------------------------------|
E |---------------3------------------|

E |-0--0-0-0--0--0-0-0--0--0-0-0---0-0-0-----|
B |-1--1-1-1--1--1-1-1--1--1-1-1---1-1-1-----|
G |-0--0-0-0--0--0-0-0--0--0-0-0---3-3-3-----|
D |-2--2-2-2--2--2-2-2--2--2-2-2---2-2-2-----|
A |-3--3-3-3--3--3-3-3--3--3-3-3---3-3-3-----|
E |------------------------------------------|

E |-1--1-1-1--1--1-1----1--1-1-1----------|
B |-1--1-1-1--1--1-1-3--1--1-1-1---1------|
G |-2--2-2-2--2--2-2-3--2--2-2-2---0--0---|
D |-3--3-3-3--3--3-3-3--3--3-3-3------2---|
A |---------------------------------------|
E |---------------------------------------|

E |-2--2-2-2--2--2-2-2--2--2-2-2--2--2-2-2--|
B |-3--3-3-3--3--3-3-3--3--3-3-3--3--3-3-3--|
G |-2--2-2-2--2--2-2-2--2--2-2-2--2--2-2-2--|
D |-0--0-0-0--0--0-0-0--0--0-0-0--0--0-0-0--|
A |-----------------------------------------|
E |-----------------------------------------|

E |-1--1-1-1--1--1-1-1--1----1-1-1--1--------|
B |-0--0-0-0--0--0-0-0--0----0-0-0--0--------|
G |-0--0-0-0--0--0-0-0--0----0-0-0--0--------|
D |-0--0-0-0--0--0-0-0--0----0-0-0--0--------|
A |------------------------------------------|
E |------------------------------------3--4--|

E |----0--0-0-0--0--0-0---0--0-0-0--0---------|
B |----1--1-1-1--1--1-1---1--1-1-1--1---------|
G |----2--2-2-2--2--2-2---2--2-2-2--2---------|
D |----2--2-2-2--2--2-2---2--2-2-2--2---------|
A |-0-----------------------------------------|
E |------------------------------------3--4---|

E |-------------------------------------------|
B |-------------------------------------------|
G |---------------------5-7-7fb-7fb-7fb-7-----|
D |---------5---5---5-7-------------------5-7-|
A |-----5-7---7---7---------------------------|
E |-5-8---------------------------------------|

E |----0--0-0-0--0--0-0---0--0-0-0--0---------|
B |----1--1-1-1--1--1-1---1--1-1-1--1---------|
G |----2--2-2-2--2--2-2---2--2-2-2--2---------|
D |----2--2-2-2--2--2-2---2--2-2-2--2---------|
A |-0-----------------------------------------|
E |------------------------------------3--4---|

E |-------------------------------------------|
B |-------------------------------------------|
G |---5-5-7-7fb-7fb-5---5---5------------5-7--|
D |-7-----------------7---7---7----7----------|
A |-------------------------------------------|
E |-------------------------------------------|

E |----0--0-0-0--0--0-0---0--0-0-0--0---------|
B |----1--1-1-1--1--1-1---1--1-1-1--1---------|
G |----2--2-2-2--2--2-2---2--2-2-2--2---------|
D |----2--2-2-2--2--2-2---2--2-2-2--2---------|
A |-0-----------------------------------------|
E |------------------------------------3--4---|

E |--------------10-10fb-*-*-*-*---r10--8-----|
B |---5-5/8-8/10--------------------------10--|
G |-7-----------------------------------------|
D |-------------------------------------------|
A |-------------------------------------------|
E |-------------------------------------------|

E |---0--0-0-0--0--0-0-0--0--0-0-0--0--0-0-0--|
B |---1--1-1-1--1--1-1-1--1--1-1-1--1--1-1-1--|
G |---2--2-2-2--2--2-2-2--2--2-2-2--2--2-2-2--|
D |---2--2-2-2--2--2-2-2--2--2-2-2--2--2-2-2--|
A |-------------------------------------------|
E |-------------------------------------------|

E |-------10fb--*--*--*--*-------*--*--*--*---|
B |---10--------------------------------------|
G |-------------------------------------------|
D |-------------------------------------------|
A |-------------------------------------------|
E |-------------------------------------------|

E |-1--1-1-1--1--1-1-1--1--1-1-1--1--1-1-1--|
B |-1--1-1-1--1--1-1-1--1--1-1-1--1--1-1-1--|
G |-2--2-2-2--2--2-2-2--2--2-2-2--2--2-2-2--|
D |-3--3-3-3--3--3-3-3--3--3-3-3--3--3-3-3--|
A |-3--3-3-3--3--3-3-3--3--3-3-3--3--3-3-3--|
E |-----------------------------------------|

E |-3--3-3-3--3--3-----3------------------|
B |-3--3-3-3--3--3--5--3------------------|
G |-4--4-4-4--4--4--5--4------------------|
D |-5--5-5-5--5--5--5--5------------------|
A |---------------------------------------|
E |---------------------------------------|

E |-0-----------------------------|
B |-1-----------------------------|
G |-2-----------------------------|
D |-2-----------------------------|
A |---------------------------0-2-|
E |-------------------------------|

E |-0---------------------------|
B |-1-------------0-------------|
G |-0-------------0-------------|
D |-2-------------0-------------|
A |-3---------------------------|
E |-----------------------------|

E |-0--0-0-0--0--0-0-0--0--0-0-0---0-0-0-----|
B |-1--1-1-1--1--1-1-1--1--1-1-1---1-1-1-----|
G |-0--0-0-0--0--0-0-0--0--0-0-0---3-3-3-----|
D |-2--2-2-2--2--2-2-2--2--2-2-2---2-2-2-----|
A |-3--3-3-3--3--3-3-3--3--3-3-3---3-3-3-----|
E |------------------------------------------|

E |-1--1-1-1--1--1-1----1--1-1-1----------|
B |-1--1-1-1--1--1-1-3--1--1-1-1----------|
G |-2--2-2-2--2--2-2-3--2--2-2-2----------|
D |-3--3-3-3--3--3-3-3--3--3-3-3----3--2--|
A |---------------------------------------|
E |---------------------------------------|

E |-2--2-2-2--2--2-2-2--2--2-2-2--2--2-2-2--|
B |-3--3-3-3--3--3-3-3--3--3-3-3--3--3-3-3--|
G |-2--2-2-2--2--2-2-2--2--2-2-2--2--2-2-2--|
D |-0--0-0-0--0--0-0-0--0--0-0-0--0--0-0-0--|
A |-----------------------------------------|
E |-----------------------------------------|

E |------3---3---3---3---3--3--3---3---------|
B |------0---0---0---0---0--0--0---0---------|
G |------0---0---0---0---0--0--0---0---------|
D |------0---0---0---0---0--0--0---0---------|
A |------------------------------------------|
E |------------------------------------3--4--|

E |----0--0-0-0--0--0-0---0--0-0-0--0---------|
B |----1--1-1-1--1--1-1---1--1-1-1--1---------|
G |----2--2-2-2--2--2-2---2--2-2-2--2---------|
D |----2--2-2-2--2--2-2---2--2-2-2--2---------|
A |-0-----------------------------------------|
E |------------------------------------3--4---|

E |----0--0-0-0--0--0-0---0--0-0-0--0---------|
B |----1--1-1-1--1--1-1---1--1-1-1--1---------|
G |----2--2-2-2--2--2-2---2--2-2-2--2---------|
D |----2--2-2-2--2--2-2---2--2-2-2--2---------|
A |-0-----------------------------------------|
E |------------------------------------3--4---|

E |----0--0-0-0--0--0-0---0--0-0-0--0---------|
B |----1--1-1-1--1--1-1---1--1-1-1--1---------|
G |----2--2-2-2--2--2-2---2--2-2-2--2---------|
D |----2--2-2-2--2--2-2---2--2-2-2--2---------|
A |-0-----------------------------------------|
E |------------------------------------3--4---|

E |----0--0-0-0--0--0-0---0--0-0-0--0--0-0-0--|
B |----1--1-1-1--1--1-1---1--1-1-1--1--1-1-1--|
G |----2--2-2-2--2--2-2---2--2-2-2--2--2-2-2--|
D |----2--2-2-2--2--2-2---2--2-2-2--2--2-2-2--|
A |-0-----------------------------------------|
E |-------------------------------------------|

E |-1--1-1-1--1--1-1-1--1--1-1-1--1--1-1-1--|
B |-1--1-1-1--1--1-1-1--1--1-1-1--1--1-1-1--|
G |-2--2-2-2--2--2-2-2--2--2-2-2--2--2-2-2--|
D |-3--3-3-3--3--3-3-3--3--3-3-3--3--3-3-3--|
A |-3--3-3-3--3--3-3-3--3--3-3-3--3--3-3-3--|
E |-----------------------------------------|

E |-3--3-3-3--3--3-----3------------------|
B |-3--3-3-3--3--3--5--3------------------|
G |-4--4-4-4--4--4--5--4------------------|
D |-5--5-5-5--5--5--5--5------------------|
A |---------------------------------------|
E |---------------------------------------|

E |-0-----------------------------------------|
B |-1-----------------------------------------|
G |-2-----------------------------------------|
D |-2-----------------------------------------|
A |---------------------------------------0-2-|
E |-------------------------------------------|

E |-------0------0-0-0-----3-3-3-3-3-3--|
B |-------1------1-1-1-----0-0-0-0-0-0--|
G |-------0------0-0-0-----0-0-0-0-0-0--|
D |--------------2-2-2-----0-0-0-0-0-0--|
A |-3------------3-3-3-----2-2-2-2-2-2--|
E |------------------------3-3-3-3-3-3--|

E |------0--0-----0----0--0-0-0-----------|
B |------1--1-----1----1--1-1-1-----------|
G |------2--2-----2----2--2-2-2-----------|
D |------2--2-----2----2--2-2-2-----------|
A |------------------------------0--0--2--|
E |---------------------------------------|

E |----0-----0-----0-----0--3--3--3-----------|
B |----1-----1-----1-----1--3--3--3-----------|
G |----0-----0-----0-----0--4--4--4-----------|
D |----------2-----2-----2--5--5--5-----------|
A |-3--------3-----3-----3--------------0--2--|
E |----------------------------------3--------|

E |------0--0-----0----0--0-0-0-----------|
B |------1--1-----1----1--1-1-1-----------|
G |------2--2-----2----2--2-2-2-----------|
D |------2--2-----2----2--2-2-2-----------|
A |------------------------------0--0--2--|
E |---------------------------------------|

E |-----0-----0-----3-----------|
B |-----1-----1-----0-----------|
G |-----0-----0-----0-----------|
D |-----2-----2-----------------|
A |-3------3-----------0--0--2--|
E |--------------3--------------|
Composição de Keith Richards / Mick Jagger
3.872 exibições
    • ½ Tom
    • A
    • Bb
    • B
    • C
    • Db
    • D
    • Eb
    • E
    • F
    • F#
    • G
    • Ab
  • Adicionar à lista

    0 comentários

    Mostrar mais comentários

    Conseguiu tocar?

    0 Tocaram 0 Ainda não

    Grave um vídeo tocando Heart Of Stone e mande pra gente!

    00:00 / 00:00
    outros vídeos desta música
    repetir qualidade Automático
    Outros vídeos desta música
    00:00 / 00:00
    Automático

    Cifra Club Pro

    Aproveite o Cifra Club com benefícios exclusivos e sem anúncios
    7 dias grátis
    Cifra Club Pro
    Aproveite o Cifra Club com benefícios exclusivos e sem anúncios
    7 dias grátis
    OK