Cifra Club

Aprenda

Jumpin' Jack Flash

The Rolling Stones

Cifra: Principal (violão e guitarra)
Tom: A
(intro)

E|-----------------------------|
B|-----------------------------|
G|--4--4--4-4---9-9--7-7--6-6--|
D|--4--4--4-4---9-9--7-7--6-6--|
A|--2--2--2-2---7-7--5-5--4-4--|
E|-----------------------------|

(riff 1)
E|------------------|
B|------------------|
G|--4-4-4----4-4-4--|
D|--4-4-4----4-4-4--|
A|--2-2-2----2-2-2--|
E|------------------|

(riff 2)
E|------------------------------------|
B|------------------------------------|
G|------------------------------------|
D|--4--4--------2--------2--------2---|
A|--2--2--------0--------0--------0---|
E|--------0--2-----0--2-----0--2------|

(intro 2x)

(riff 1)

(riff 2)
I was born in a crossfire hurricane
And I howled at my ma in the driving rain

         D   A      E                   B
But it's all right, now, in fact it`s a gás
         D   A           E                         B               (riff 1)
But it's all right, I'm jumping jack flash, it's a gas, gas, gas! 

(riff 2)
I was raised by a toothless, bearded hag
I was schooled with a strap right across my back

         D   A      E                   B
But it's all right, now, in fact it`s a gás
         D   A           E                         B              (riff 1)
But it's all right, I'm jumping jack flash, it's a gas, gas, gas!

(intro 4x) (riff 1)

(riff 2)
I was drowned, I was washed up and left for dead
I fell down to my feet and I saw they bled
I frowned at the crumbs of a crust of bread
I was crowned with a spike right thru my head
         D   A      E                   B
But it's all right, now, in fact it`s a gás
         D   A           E                         B               (riff 1)
But it's all right, I'm jumping jack flash, it's a gas, gas, gas! 

(intro 6x)
Jumping jack flash, it's a gas

(riff 1)

(riff 2)
Composição de Keith Richards / Mick Jagger
Colaboração e revisão:
  • Joel Conto
34.225 exibições
    • ½ Tom
    • A
    • Bb
    • B
    • C
    • Db
    • D
    • Eb
    • E
    • F
    • F#
    • G
    • Ab
  • Adicionar à lista

    0 comentários

    Mostrar mais comentários

    Conseguiu tocar?

    4 Tocaram 0 Ainda não

    Grave um vídeo tocando Jumpin' Jack Flash e mande pra gente!

    00:00 / 00:00
    outros vídeos desta música
    repetir qualidade Automático
    Outros vídeos desta música
    00:00 / 00:00
    Automático

    Cifra Club Pro

    Aproveite o Cifra Club com benefícios exclusivos e sem anúncios
    7 dias grátis
    Cifra Club Pro
    Aproveite o Cifra Club com benefícios exclusivos e sem anúncios
    7 dias grátis
    OK