Cifra Club

Aprenda

Jumping Jack Flash

The Rolling Stones

Tab de baixo: Principal
G|-------------------------------------------
D|----------2-0------------------------------   
A|--2--22-2-------4--0--2--------------------  (3x)
E|-------------------------------------------

G|-------------------------------------------
D|-----9*------------------------------------  
A|------------------------------------------- 
E|-------------------------------------------

G|-------------------------------------------
D|----9--9-------7-------7--------7--9--9----
A|-----------7--9----7--9-----7--9-----------  (6x)
E|-------------------------------------------

G|--------------------------------------------
D|-------------------------------------------- (2x)
A|--4-4-4--3-4-3------ 3-4-5-6-6-6-4-6-4------
E|---------------4-4-4-------------------6-6-6

G|-------------------------------------------
D|-----9*------------------------------------  
A|------------------------------------------- 
E|-------------------------------------------

G|-------------------------------------------
D|----9--9-------7-------7--------7--9--9----
A|-----------7--9----7--9-----7--9-----------  (6x)
E|-------------------------------------------

G|--------------------------------------------
D|-------------------------------------------- (2x)
A|--4-4-4--3-4-3------ 3-4-5-6-6-6-4-6-4------
E|---------------4-4-4-------------------6-6-6

G|-------------------------------------------
D|------9*-----------------------------------  
A|------------------------------------------- 
E|-------------------------------------------

G|-------------------------------------------
D|----------2-0------------------------------   
A|--2--22-2-------4--0--2--------------------  (5x)
E|-------------------------------------------

G|-------------------------------------------
D|-----9*------------------------------------  
A|------------------------------------------- 
E|-------------------------------------------

G|-------------------------------------------
D|----9--9-------7-------7--------7--9--9----
A|-----------7--9----7--9-----7--9-----------  (8x)
E|-------------------------------------------

G|--------------------------------------------
D|-------------------------------------------- (2x)
A|--4-4-4--3-4-3------ 3-4-5-6-6-6-4-6-4------
E|---------------4-4-4-------------------6-6-6

G|-------------------------------------------
D|-----9*------------------------------------  
A|------------------------------------------- 
E|-------------------------------------------

G|-------------------------------------------
D|----9--9-------7-------7--------7--9--9----
A|-----------7--9----7--9-----7--9-----------  (6x)
E|-------------------------------------------

G|--------------------------------------------
D|-------------------------------------------- (2x)
A|--4-4-4--3-4-3------ 3-4-5-6-6-6-4-6-4------
E|---------------4-4-4-------------------6-6-6

G|-------------------------------------------
D|-----9*------------------------------------  
A|------------------------------------------- 
E|-------------------------------------------

G|-------------------------------------------
D|----------2-0------------------------------   
A|--2--22-2-------4--0--2--------------------  (5x)
E|-------------------------------------------

G|-------------------------------------------
D|-----9*------------------------------------  
A|------------------------------------------- 
E|-------------------------------------------

G|-------------------------------------------
D|----9--9-------7-------7--------7--9--9----
A|-----------7--9----7--9-----7--9-----------  (8x)
E|-------------------------------------------

G|-------------------------------------------
D|-------------------------------------------  (2x)
A|-4-4-4--3-4-3-------3-4-5-6-6-6-4-6-4------
E|--------------4-4-4-------------------6-6-6

G|-------------------------------------------
D|-----9*------------------------------------  
A|------------------------------------------- 
E|-------------------------------------------

G|-------------------------------------------
D|----9--9-------7-------7--------7--9--9----
A|-----------7--9----7--9-----7--9-----------  (6x)
E|-------------------------------------------

G|-------------------------------------------
D|-------------------------------------------  (2x)
A|-4-4-4--3-4-3-------3-4-5-6-6-6-4-6-4------
E|--------------4-4-4-------------------6-6-6

G|-------------------------------------------
D|-----9*------------------------------------  
A|------------------------------------------- 
E|-------------------------------------------

G|-------------------------------------------
D|----------2-0------------------------------   
A|--2--22-2-------4--0--2--------------------  (5x)
E|-------------------------------------------

G|-------------------------------------------
D|-----9*------------------------------------  
A|------------------------------------------- 
E|-------------------------------------------

G|-------------------------------------------
D|----9--9-------7-------7--------7--9--9----
A|-----------7--9----7--9-----7--9-----------  (8x)
E|-------------------------------------------

G|-------------------------------------------
D|-------------------------------------------  (2x)
A|-4-4-4--3-4-3-------3-4-5-6-6-6-4-6-4------
E|--------------4-4-4-------------------6-6-6

G|-------------------------------------------
D|-----9*------------------------------------  
A|------------------------------------------- 
E|-------------------------------------------

G|-------------------------------------------
D|----------2-0------------------------------   
A|--2--22-2-------4--0--2--------------------
E|-------------------------------------------
Composição de Keith Richards / Mick Jagger
Colaboração e revisão:
  • Gustavo
  • Rafael Britops
2.859 exibições

0 comentários

Mostrar mais comentários
00:00 / 00:00
outros vídeos desta música
repetir qualidade Automático
Outros vídeos desta música
00:00 / 00:00
Automático

Cifra Club Pro

Aproveite o Cifra Club com benefícios exclusivos e sem anúncios
7 dias grátis
Cifra Club Pro
Aproveite o Cifra Club com benefícios exclusivos e sem anúncios
7 dias grátis
OK