Cifra Club

Aprenda

Live With Me

The Rolling Stones

Tab de baixo: Principal
G|----------------------------------------------------------------------
D|----------------------------------------------------------------------
A|------------3------------5--3-----------------------------------------
E|---0--3--5-----5--3--0-----------5--3--5------------------------------

REFRÃO
G|----------------------------------------------------------------------
D|----------------------------------------------------------------------
A|----------------------------------------------------------------------
E|---0-0-000--3-3-333---5-5-555-----------------------------------------

G|----------------------------------------------------------------------
D|----7---7---7---7---7---7---7---7---7---------------------------------
A|----------------------------------------------------------------------
E|--5---5---5---5---5---5---5---5---5-----------------------------------
Composição de Keith Richards / Mick Jagger
Colaboração e revisão:
  • Eric Lino
  • Yan Espinola
207 exibições

0 comentários

Mostrar mais comentários

Conseguiu tocar?

0 Tocaram 0 Ainda não

Grave um vídeo tocando Live With Me e mande pra gente!

00:00 / 00:00
outros vídeos desta música
repetir qualidade Automático
Outros vídeos desta música
00:00 / 00:00
Automático

Cifra Club Pro

Aproveite o Cifra Club com benefícios exclusivos e sem anúncios
7 dias grátis
Cifra Club Pro
Aproveite o Cifra Club com benefícios exclusivos e sem anúncios
7 dias grátis
OK