Cifra Club

Aprenda

Miss You

The Rolling Stones

Tab de baixo: Principal
Tuning:EADG

   Repeat this a Few times
G||----------------------------------7---9--10---7---5---4---2---|
D||*---7---9---10---9---7---9---10------------------------------*|
A||*-------------------------------5---7---8---5---3---2---0----*|
E||--5---7---8---7----5---7---8----------------------------------|

  (Oooohhhhh Baby....)
G|--10------10---9-----9---7-----7---7-----7--10-----10----9----9---7-----7-/9-9--9-9|
D|-----------------------------------------------------------------------------------|
A|-8---8--8----7---7-7---5---5-5---5---5-5---8---8-8----7---7-7---5---5-5-/--7-7--7-7|
E|-----------------------------------------------------------------------------------|

Thats it, just repeat when needed. Enjoy
Composição de Keith Richards / Mick Jagger
3.933 exibições

0 comentários

Ver todos os comentários
00:00 / 00:00
outros vídeos desta música
repetir qualidade Automático
Outros vídeos desta música
00:00 / 00:00
Automático

Cifra Club Pro

Aproveite o Cifra Club com benefícios exclusivos e sem anúncios
Cifra Club Pro
Aproveite o Cifra Club com benefícios exclusivos e sem anúncios
OK