Cifra Club

Aprenda

(I Can't Get No) Satisfaction

The Rolling Stones

Tab de baixo: Principal
Intro - entra guitarra e logo depois o baixo:

Parte 1

G|----------------------------------------------------|
D|--------7-7---7--------------------7-7--7-----------|
A|-7-9-10---------10-9---7-7--7-9-10--------10-9------|
E|----------------------------------------------------|

Parte 2

G|----------------------------------------------------|
D|-------------7-7--7--------------------7-7--7-------|
A|-7-7--7-9-10--------10-9---7-7--7-9-10--------10-9--|
E|----------------------------------------------------|

Primeira Parte: 

I can't get no...

Parte 1 (2x)

G|----------------------------------------------------|
D|-----------------7-7---7-7---7----------------------|
A|-7-7---7-7---7-------7-----7------------------------|
E|-----7-----7----------------------------------------|

Parte 2

'Cause I try, and I try, and I try, and I try...

G|----------------------------------------------------|
D|----------9-9-9-9---9-----------7-7---7-------------|
A|-7-7----7---------9----7-7---7------7---------------|
E|-----7---------------------7------------------------|

Refrão 8x:

I can't get no...

G|----------------------------------------------------|
D|-------------7-7--7---------------------------------|
A|-7-7--7-9-10--------10-9----------------------------|
E|----------------------------------------------------|

Ponte e Intro:

G|----------------------------------------------------|
D|-------------------7-7-7-------------------7-7-7----|
A|---5-6-7-7--7-9-10-------10-9--7-7--7-9-10------10-9|
E|-7--------------------------------------------------|

Primeira Parte: 

I can't get no...

Parte 1 (2x)

G|----------------------------------------------------|
D|-----------------7-7---7-7---7----------------------|
A|-7-7---7-7---7-------7-----7------------------------|
E|-----7-----7----------------------------------------|

Parte 2

'Cause I try, and I try, and I try, and I try...

G|----------------------------------------------------|
D|----------9-9-9-9---9-----------7-7---7-------------|
A|-7-7----7---------9----7-7---7------7---------------|
E|-----7---------------------7------------------------|

Refrão 8x:

I can't get no...

G|----------------------------------------------------|
D|-------------7-7--7---------------------------------|
A|-7-7--7-9-10--------10-9----------------------------|
E|----------------------------------------------------|

Intro e fade out:

G|----------------------------------------------------|
D|-------------------7-7-7-------------------7-7-7----|
A|---5-6-7-7--7-9-10-------10-9--7-7--7-9-10------10-9|
E|-7--------------------------------------------------|
Composição de Keith Richards / Mick Jagger
Colaboração e revisão:
  • Reginaldo Costa
  • Paulo Rocha
58.691 exibições

0 comentários

Mostrar mais comentários

Conseguiu tocar?

18 Tocaram 0 Ainda não

Grave um vídeo tocando (I Can't Get No) Satisfaction e mande pra gente!

00:00 / 00:00
outros vídeos desta música
repetir qualidade Automático
Outros vídeos desta música
00:00 / 00:00
Automático
Capítulos
  • Início
  • Tocando a música
  • Tocando Introdução
  • Ensinando Introdução
  • Tocando Primeira Parte
  • Ensinando Primeira Parte
  • Tocando Refrão
  • Ensinando Refrão
  • Tocando Repetição - Ponte
  • Ensinando Ponte da Repetição
  • Tocando trecho final
  • Encerramento

Cifra Club Pro

Aproveite o Cifra Club com benefícios exclusivos e sem anúncios
7 dias grátis
Cifra Club Pro
Aproveite o Cifra Club com benefícios exclusivos e sem anúncios
7 dias grátis
OK