Cifra Club

Aprenda

(I Can't Get No) Satisfaction

The Rolling Stones

Tab de baixo: Estudio
                                                     (3x)                    I      can't
g-----------|-------------------|--------------------|-------------------|---------------|
d-----4--6--|--7---7---7--6--4--|*-------------4--5--|--7---7---7--6--4-*|---------------|
a--7--------|-------------------|*--7---7---7--------|------------------*|--7---7--------|
e-----------|-------------------|--------------------|-------------------|---------7-----|

   get no                                              I can't      get no...
|---------------|----------------|------------------|------------|---------------|----------------|
|---------------|--7---7------7--|--7---7-----7-----|------------|---------------|--7---7------7--|
|--7---7-----7--|---------7------|---------7-----7--|--7---7-----|--7---7-----7--|---------7------|
|---------7-----|----------------|------------------|---------7--|---------7-----|----------------|

|------------------|----------------|---------------|-------------------|---------------|
|--7---7-----7-----|----------------|--9---9-----9--|-------------------|--7---7-----7--|
|---------7-----7--|--7---7------7--|---------9-----|--7---7-----7------|---------7-----|
|------------------|---------7------|---------------|---------7------7--|---------------|

|-------------------|-------------------|-------------------|-------------------|
|-------------4--5--|--7---7---7--5--4--|-------------4--5--|--7---7---7--5--4--|
|--7---7---7--------|-------------------|--7---7---7--------|-------------------|
|-------------------|-------------------|-------------------|-------------------|

   driving...                              man...
   watching...                             man...
   riding...                               doing...
|-------------------|-------------------|-------------------|-------------------|
|-------------4--5--|--7---7---7--5--4--|-------------4--5--|--7---7---7--5--4--|
|--7---7---7--------|-------------------|--7---7---7--------|-------------------|
|-------------------|-------------------|-------------------|-------------------|

|-------------------|-------------------|-------------------|-------------------|
|-------------4--5--|--7---7---7--5--4--|-------------4--5--|--7---7---7--5--4--|
|--7---7---7--------|-------------------|--7---7---7--------|-------------------|
|-------------------|-------------------|-------------------|-------------------|

|-------------------|-------------------|-------------------|-------------------|
|-------------4--5--|--7---7---7--5--4--|-------------4--5--|--7---7---7--5--4--|
|--7---7---7--------|-------------------|--7---7---7--------|-------------------|
|-------------------|-------------------|-------------------|-------------------|

|-------------------|--------------------|-----|-----------|---------------------|
|-------------4--5--|--7-----7--7--5--4--|-----|-----------|---------------4--6--|
|--7---7---7--------|--------------------|--7--|-----4--6--|--7---7-----7--------|
|-------------------|--------------------|-----|--7--------|---------------------|

                                         1,2_______________  3__________________
|-------------------|-------------------|-------------------|--------------------|
|--7---7---7--5--4--|-------------4--5--|--7---7---7--5--4-*|--7-----7--7--5--4--|
|-------------------|--7---7---7--------|------------------*|--------------------|
|-------------------|-------------------|-------------------|--------------------|

|---------------------|---------------------|---------------------|---------------------|
|---------------4--5--|--7-----7---7--5--4--|---------------4--5--|--7-----7---7--5--4--|
|--7-----7---7--------|---------------------|--7-----7---7--------|---------------------|
|---------------------|---------------------|---------------------|---------------------|

|---------------------|---------------------|---------------------|---------------------|
|---------------4--5--|--7-----7---7--5--4--|---------------4--5--|--7-----7---7--5--4--|
|--7-----7---7--------|---------------------|--7-----7---7--------|---------------------|
|---------------------|---------------------|---------------------|---------------------|

|---------------------|---------------------|---------------------|---------------------|
|---------------4--5--|--7-----7---7--5--4--|---------------4--5--|--7-----7---7--5--4--|
|--7-----7---7--------|---------------------|--7-----7---7--------|---------------------|
|---------------------|---------------------|---------------------|---------------------|
Composição de Keith Richards / Mick Jagger
Colaboração e revisão:
  • valdir júnior
2.867 exibições

0 comentários

Mostrar mais comentários

Conseguiu tocar?

1 Tocaram 0 Ainda não

Grave um vídeo tocando (I Can't Get No) Satisfaction e mande pra gente!

00:00 / 00:00
outros vídeos desta música
repetir qualidade Automático
Outros vídeos desta música
00:00 / 00:00
Automático
Capítulos
  • Início
  • Tocando a música
  • Tocando Introdução
  • Ensinando Introdução
  • Tocando Primeira Parte
  • Ensinando Primeira Parte
  • Tocando Refrão
  • Ensinando Refrão
  • Tocando Repetição - Ponte
  • Ensinando Ponte da Repetição
  • Tocando trecho final
  • Encerramento

Cifra Club Pro

Aproveite o Cifra Club com benefícios exclusivos e sem anúncios
Cifra Club Pro
Aproveite o Cifra Club com benefícios exclusivos e sem anúncios
OK