Cifra Club

Aprenda

Start Me Up

The Rolling Stones

Tab de baixo: Principal
intro e verso:

G---------------------------3h3h3-1--------
D---33----33---33-----3-------------3h-----
A-3-----3----3-----1----1-1----------------
E------------------------------------------

refrão:

G----------------------------------------------------
D------3333----3333----3333--------------------------
A-3333-----3333----3333-------3-33-3-33-3-33/1-1-33--
E----------------------------------------------------...


não sei se tah 100% certa mas emprovizem mais alguma coisa e vai embora....
Composição de Keith Richards / Mick Jagger
Colaboração e revisão:
  • marcelo severo
17.479 exibições

0 comentários

Mostrar mais comentários

Conseguiu tocar?

2 Tocaram 0 Ainda não

Grave um vídeo tocando Start Me Up e mande pra gente!

00:00 / 00:00
outros vídeos desta música
repetir qualidade Automático
Outros vídeos desta música
00:00 / 00:00
Automático

Cifra Club Pro

Aproveite o Cifra Club com benefícios exclusivos e sem anúncios
7 dias grátis
Cifra Club Pro
Aproveite o Cifra Club com benefícios exclusivos e sem anúncios
7 dias grátis
OK