I'm Yours

The Script

tom: C
Intro:
    F          G        F         G       F          G        C
E|----------------------------------------------------------------------------|
B|---1---0-------3-----1---0---------3-----1---0-------3----------3--3--1-----|
G|--------------0-----------------0h2-----------------0-0--------0--0---0-----|
D|--3---3---3--0------3---3---3--0--------3---3---3--0---0------2--2----2-----|
A|-0---0---0--2------0---0---0--2--------0---0---0--2------0h2h3--------3-----|
E|----------------------------------------------------------------------------|

F               G             F
You touch these tired eyes of mine
           G                F
And map my face out line by line
            G                 C
And somehow growing old feels fine

F        G                 F
I listen close for I'm not smart
              G                    F
You wrap your thoughts in works of art
                    G                  C
And they're hanging on the walls of my heart

          F                G
I may not have the softest touch
          F                G
I may not say the words as such
             F                 G
And though I may not look like much
    C
I'm yours

              F            G
And though my edges may be rough
          F              G
And never feel I'm quite enough
           F              G
It may not seem like very much
        C
But I'm yours

( Am  C  Dm  E7 )

    F            G          F
You heeled these scars over time
            G
Embraced my soul
             F
You loved my mind
                G           C
You're the only angel in my life
    F        G                   F
The day news came my best friend died
              G                   F
My knees went week and you saw me cry
                  G               C
Say I'm still the soldier in your eyes

          F                G
I may not have the softest touch
          F                G
I may not say the words as such
             F                 G
And though I may not look like much
    C
I'm yours

F            G
And though my edges may be rough
          F              G
And never feel I'm quite enough
           F              G
It may not seem like very much
        C
But I'm yours

( Am  C  Dm  E7 ) (2x)
E|--------------------------------------------------------------------------|
B|--------------------------------------------------------------------------|
G|-2-2-4-5-5---5---5-5-4-2-2-4-5---2-4-5-4-7-5---5p4p2-------0h2------------|
D|----------------------------------------------------2p0-2h3---------------|
A|-------------------------------------------------------2------------------|
E|--------------------------------------------------------------------------|

E|--0--0-(x8)---------------------------------------------------------------|
B|----5----------3-(x8)---3-(x8)--------------------------------------------|
G|---5----------5--------5-------------2--4-5-4-5-7-7/9-9-9-----------------|
D|-------------2--------3--------------2------------------------------------|
A|-------------------------------------2------------------------------------|
E|--------------------------------------------------------------------------|

          F                G
I may not have the softest touch
          F                G
I may not say the words as such
         F                 G
I know I don't fit in that much
    C
I'm yours.
Final:
E|---------------------------------------------------------x----------------|
B|----6-6-5-3----6-6-5-3----6-6-5-3------------------------1----------------|
G|----------------------------------------0h2p0------------0----------------|
D|-----------------------------------------------0h2p0-----2----------------|
A|-----------------------------------------------------3---3----------------|
E|---------------------------------------------------------x----------------|
Página 1 / 1

Letras e título
Acordes e artista

resetar configurações
OK