Cifra Club

Blue Sky Blue Sea Blue Me

The Shadows

Cifra: Principal (violão e guitarra)
tom: D

Tabbed by:Søren Hansen(player 92)
Email:*

Tuning:Normal


The double stops are played using a vol/wah pedal

e|-0--2-|7-5-3-|0-2--|-7--5--3-|-|-2-----|--------|--------|--------|---------|
b|-3--3-|8-7-5-|3-3--|-8--7--5-|-|-3-----|--------|--------|--------|---------|
g|------|------|-----|---------|-|-------|--------|--------|--------|---------|
d|------|------|-----|---------|-|----4--|---0-2-5|-4--4-2-|-0---0--|0--0-2-4-|
a|------|------|-----|---------|-|------0|-1------|--------|--------|---------|
E|------|------|-----|---------|-|-------|--------|--------|--------|---------|

e|----|-------|--------|--------|-----------|---------|-------|-----------|---|
b|----|-------|--------|--------|-----------|---------|-------|-----------|---|
g|----|----4--|-2--6---|-4---4--|-2---------|---------|-------|-----------|---|
d|-2--|-------|--------|--------|----4--0---|----0--2-|-4-----|----0--2---|-0-|
a|----|-------|--------|--------|---------0-|-1-------|----0--|-1-------4-|---|
E|----|-------|--------|--------|-----------|---------|-------|-----------|---|

e|-0--2-|--------------|-----|-------------|----|------------|-----------|---|
b|-3--3-|--------------|-----|-------------|----|------------|-----------|---|
g|------|--------------|-2---|-------------|----|------------|-----------|-4-|
d|------|-4-4-4-4--4-4-|-----|-2-2-2-2-2-2-|-5--|-0-0-0--0-0-|-0-2-4-2-0-|---|
a|------|--------------|-----|-------------|----|------------|-----------|-2-|
E|------|--------------|-----|-------------|----|------------|-----------|---|

e|---------|-|---|---------|------|----------|---|-------|-----|---------|---|
b|---------|-|---|---------|------|----------|---|-------|-----|---------|---|
g|-3-5-3-2-|-|-6-|-5-7-5-4-|-1----|-------2--|-1-|--1----|-----|-------1-|---|
d|---------|-|---|---------|------|---2-4----|---|----4--|-2-2-|-2-2-4---|-4-|
a|-1-3-1-0-|-|-4-|-3-5-3-2-|----2-|-3--------|---|-------|-----|---------|---|
E|---------|-|---|---------|------|----------|---|-------|-----|---------|---|

e|---|------|-----|----------|-------|------|---------|---|-9--7--5-|--4-----|
b|-2-|----4-|-2-2-|----------|-------|------|---------|---|-10-9--7-|--5-----|
g|---|-4----|-----|-4-1------|-------|-1----|---------|---|---------|--------|
d|---|------|-----|-----2----|---2-4-|------|---2-4-1-|-2-|---------|--------|
a|---|------|-----|-------2--|-3-----|----2-|-3-------|---|---------|--------|
E|---|------|-----|----------|-------|------|---------|---|---------|--------|

e|--9-7-5-|-4----------------------------------------------------------------|
b|-10-9-7-|-5----------------------------------------------------------------|
g|--------|------------------------------------------------------------------|
d|--------|------------------------------------------------------------------|
a|--------|------------------------------------------------------------------|
E|--------|------------------------------------------------------------------|
00:00 / 00:00
Outros vídeos desta música
Repetir
Outros vídeos desta música
Composição de Bruce Welch / John Rostill
1.686 exibições
    • ½ Tom
    • A
    • Bb
    • B
    • C
    • Db
    • D
    • Eb
    • E
    • F
    • F#
    • G
    • Ab
  • Adicionar à lista

    0 comentários

    Ver todos os comentários

    Conseguiu tocar?

    0 Tocaram 0 Ainda não

    Grave um vídeo tocando Blue Sky Blue Sea Blue Me e nos envie!

    00:00 / 00:00

    Cifra Club Pro

    Aproveite o Cifra Club com benefícios exclusivos e sem anúncios
    Cifra Club Pro
    Aproveite o Cifra Club com benefícios exclusivos e sem anúncios
    OK