Cifra Club

Riders In The Sky

The Shadows

Tab de baixo: Principal
Tabbed by Craig Dobson – Member of the Foot Tappers

Intro x 2
G|------------------------------------------------------------------|
D|---7--7--7-7--7--9-10-5--3--5--7--3--5--7--9--5--7--7--7--7-------|
A|------------------------------------------------------------------|
E|-5--5--5--5--5-7-8---3--1--3--5--1--3--5--7--3--5--5--5--5--------|

Riff 1x2
G|------------------------------------------------------------------|
D|------------------------------------------------------------------|
A|-------------------------7-7-7-7----------------------------------|
E|-5-5-5-5-8-8-8-8-5-5-5-5---------5-5-5-5-1-1-1-1-1-1-1-/-5-5-5-5-5|

Riff 2
G|------------------------------------------------------------------|
D|------------------------------------------------------------------|
A|---------------------------------3-3-3-3--------------------------|
E|-8-8-7-7-5-5-3-3-5-5-5-5-1-1-1-1---------5-5-5-5-6-6-6-6-7-7-7-7--|

G|------------------------------------------------------------------|
D|------------------------------------------------------------------|
A|---------------------------------------6-6-6-6--------------------|
E|-8-8-8-8-8-8-8-8-8-8-8-6-6-6-6-8-8-8-8---------8-8-8-8-4-4-4-4-4-4|

G|------------------------------------------------------------------|
D|------------------------------------------------------------------|
A|------------------------------------------------------------------|
E|8-8-8-8-8-7-7-7-7-6-6-6-6-5-5-5-5-8-8-7-7-5-5-3-3-5-5-5-5-1-1-1-1-|

G|------------------------------------------------------------------|
D|------------------------------------------------------------------|
A|-----------------------------------------3-3-3-3------------------|
E|-5-5-5-5-8-8-7-7-5-5-3-3-5-5-5-5-1-1-1-1---------5-5-5-5-5-5-5-5--|

G|------------------------------------------------------------------|
D|------------------------------------------------------------------|
A|---------3-3-3-3-----------------------------------12-12-12-------|
E|-1-1-1-1-----------then intro twice ends on---5-5-5---------------|

00:00 / 00:00
Outros vídeos desta música
Repetir
Outros vídeos desta música
Composição de Stan Jones
2.768 exibições

0 comentários

Ver todos os comentários

Conseguiu tocar?

0 Tocaram 0 Ainda não

Grave um vídeo tocando Riders In The Sky e nos envie!

Entre para oCifra Club PRO

Tenha acesso a benefícios exclusivos no App e no Site

  • Chega de anúncios

  • Prioridade de compra em lançamentos

  • Mais recursos no app do Afinador

  • Atendimento Prioritário

  • Descontos nos produtos Cifra Club

  • Ajude a produzir mais conteúdo

00:00 / 00:00

Cifra Club Pro

Aproveite o Cifra Club com benefícios exclusivos e sem anúncios
Cifra Club Pro
Aproveite o Cifra Club com benefícios exclusivos e sem anúncios
OK