Cifra Club

Aprenda

New Slang

The Shins

Tab de baixo: Versão 2
 (Tabbed by w7w7w7)



Intro
G|-----------------------------------------------------------------------|
D|-----------------------------------------------------------------------|
A|----------------------------------------------12---10------------------|
E|--------------------------------------------------------8----------8-7-|



Verse
G|-----------------------------------------------------------------------|
D|---------10------------10-------------10--------------7----------------|
A|-----7--------7-8-----------7-10-----------7-8-----10-----10-----------|
E|-5---------------------------------------------------------------------|

G|-----------------------------------------------------------------------|
D|-7-------10------------10-------------10--------------7----------------|
A|--------------7-8-----------7-10-----------7-8-----10-----10-----------|
E|-----------------------------------------------------------------------|



Chorus
G|-----------------12----------------------------------------------------|
D|-12-----------------14-12-10-----15---14-10--------12-10-9-------------|
A|----14-12-10------------------------------------10---------------------|
E|-----------------------------------------------------------------------|

G|-----------------12----------------------------------------------------|
D|-12-----------------14-12-10-------------------------------------------|
A|----14-12-10--------------------8---7-----7-8---7-----7-8---7-----7-10-|
E|--------------------------------------8-----------8-----------8--------|



First chorus ending
G|-----------------------------------|
D|-----------------------------------|
A|------------------------------10-7-|
E|-----------------------------------|


Verse
Chorus


Bridge
G|-----------------------------------------------------------------------|
D|----10-----10-----10------10------10-----------10-----10------10-------|
A|-10----8--------8----10--------10----8-----8--------8----10------------|
E|-----------------------------------------------------------------------|

G|-----------------------------------|
D|-----------------------------------|
A|-12---10---------------------------|
E|-----------8-------------------8-7-|


Verse
G|-----------------------------------------------------------------------|
D|---------10------------10-------------10--------------7----------------|
A|-----7--------7-8-----------7-10-----------7-8-----10-----10-----------|
E|-5---------------------------------------------------------------------|



Chorus
G|-----------------12----------------------------------------------------|
D|-12-----------------14-12-10-----15---14-10--------12-10-9-------------|
A|----14-12-10------------------------------------10---------------------| x2
E|-----------------------------------------------------------------------|

G|-----------------12----------------------------------------------------|
D|-12-----------------14-12-10-------------------------------------------|
A|----14-12-10--------------------8---7-----7-8---7-----7-8---7-----7-10-|
E|--------------------------------------8-----------8-----------8--------|


Bridge


Outro
G|-----------------------------------------------------------------------|
D|-7------------10--------10---7-----------------------------------------|
A|-----10---8--------10------------10------------------------------------| x2
E|-----------------------------------------------------------------------|

G|-----------------------------------|
D|-10--------------------------------|
A|-----------------------------------|
E|-----------------------------------|
Composição de James Mercer / The Shins
37 exibições

0 comentários

Ver todos os comentários

Conseguiu tocar?

0 Tocaram 0 Ainda não

Grave um vídeo tocando New Slang e nos envie!

00:00 / 00:00
Outros vídeos desta música
Repetir Qualidade Automático
Outros vídeos desta música
00:00 / 00:00
Automático

Cifra Club Pro

Aproveite o Cifra Club com benefícios exclusivos e sem anúncios
Cifra Club Pro
Aproveite o Cifra Club com benefícios exclusivos e sem anúncios
OK